999
The file was created in CADSoftTools software
999

  0
SECTION
  2
HEADER
  9
$ACADVER
  1
AC1015
  9
$DWGCODEPAGE
  3
ANSI_1252
  9
$CLAYER
  8
0
  9
$CELTYPE
  6
BYLAYER
  9
$CELTSCALE
 40
1
  9
$CELWEIGHT
370
-1
  9
$DIMALT
 70
0
  9
$DIMALTF
 40
1
  9
$DIMPOST
  1

  9
$DIMAPOST
  1

  9
$DIMSCALE
 40
1
  9
$DIMASZ
 40
0.18
  9
$DIMCLRD
 70
0
  9
$DIMCLRE
 70
0
  9
$DIMCLRT
 70
0
  9
$DIMEXE
 40
0.18
  9
$DIMEXO
 40
0.0625
  9
$DIMGAP
 40
0.0625
  9
$DIMLFAC
 40
1
  9
$DIMDEC
 70
4
  9
$DIMTAD
 70
0
  9
$DIMCEN
 40
0.09
  9
$DIMTIH
 70
1
  9
$DIMTIX
 70
0
  9
$DIMTOH
 70
1
  9
$DIMSE1
 70
0
  9
$DIMSE2
 70
0
  9
$DIMSD1
 70
0
  9
$DIMSD2
 70
0
  9
$DIMLWD
 70
-1
  9
$DIMLWE
 70
-1
  9
$DIMSAH
 70
0
  9
$DIMBLK
  1

  9
$DIMBLK1
  1

  9
$DIMBLK2
  1

  9
$DIMLDRBLK
  1

  9
$DIMSTYLE
  2
STANDARD
  9
$DIMTP
 40
0
  9
$DIMTM
 40
0
  9
$DIMTXT
 40
0.18
  9
$DIMLUNIT
 70
2
  9
$DIMDSEP
 70
46
  9
$DIMTXSTY
  7
STANDARD
  9
$TEXTSIZE
 40
0.18
  9
$TEXTSTYLE
  7
STANDARD
  9
$HANDSEED
  5
000000000000012C
  9
$FILLETRAD
 40
0.5
  9
$INSUNITS
 70
4
  9
$LIMMIN
 10
-45.875
 20
-48.625
  9
$LIMMAX
 10
62.875
 20
57.625
  9
$FILLMODE
 70
1
  9
$LTSCALE
 40
1
  9
$MEASUREMENT
 70
0
  9
$ATTMODE
 70
1
  9
$PDMODE
 70
0
  9
$PDSIZE
 40
0
  9
$TILEMODE
 70
1
  9
$UCSORG
 10
0
 20
0
 30
0
  9
$UCSXDIR
 10
1
 20
0
 30
0
  9
$UCSYDIR
 10
0
 20
1
 30
0
  9
$INSBASE
 10
0
 20
0
 30
0
  9
$XCLIPFRAME
290
1
  9
$DIMASSOC
280
2
  9
$TDCREATE
 40
2460472.37216205
  9
$TDINDWG
 40
1.73611111111111E-7
  9
$TDUPDATE
 40
2460472.37216222
  0
ENDSEC
  0
SECTION
  2
CLASSES
  0
CLASS
  1
IMAGE
  2
AcDbRasterImage
  3
ISM
 90
2175
280
0
281
1
  0
CLASS
  1
IMAGEDEF
  2
AcDbRasterImageDef
  3
ISM
 90
0
280
0
281
0
  0
CLASS
  1
WIPEOUT
  2
AcDbWipeout
  3
"WipeOut"
 90
2175
280
0
281
1
  0
CLASS
  1
WIPEOUTVARIABLES
  2
AcDbWipeoutVariables
  3
"WipeOut"
 90
0
280
0
281
0
  0
CLASS
  1
MPOLYGON
  2
AcDbMPolygon
  3
"AcMPolygonObj15"
 90
3071
280
0
281
1
  0
ENDSEC
  0
SECTION
  2
TABLES
  0
TABLE
  2
APPID
  5
64
100
AcDbSymbolTable
  0
APPID
  5
65
100
AcDbSymbolTableRecord
100
AcDbRegAppTableRecord
  2
ACAD
 70
0
  0
APPID
  5
12
100
AcDbSymbolTableRecord
100
AcDbRegAppTableRecord
  2
CSTINVENTORY
 70
0
  0
APPID
  5
66
100
AcDbSymbolTableRecord
100
AcDbRegAppTableRecord
  2
AcDbAttr
 70
0
  0
APPID
  5
67
100
AcDbSymbolTableRecord
100
AcDbRegAppTableRecord
  2
PE_URL
 70
0
  0
ENDTAB
  0
TABLE
  2
BLOCK_RECORD
  5
68
100
AcDbSymbolTable
  0
BLOCK_RECORD
  5
63
100
AcDbSymbolTableRecord
100
AcDbBlockTableRecord
  2
*MODEL_SPACE
  0
BLOCK_RECORD
  5
69
100
AcDbSymbolTableRecord
100
AcDbBlockTableRecord
  2
*PAPER_SPACE
  0
BLOCK_RECORD
  5
10
100
AcDbSymbolTableRecord
100
AcDbBlockTableRecord
  2
_CLOSEDFILLED
  0
ENDTAB
  0
TABLE
  2
STYLE
  5
3
100
AcDbSymbolTable
  0
STYLE
  5
A
100
AcDbSymbolTableRecord
100
AcDbTextStyleTableRecord
  2
STANDARD
 70
0
 40
0
 41
1
 50
0
 71
0
 42
2.5
  3
txt
  4

  0
STYLE
  5
2E
100
AcDbSymbolTableRecord
100
AcDbTextStyleTableRecord
  2
HS_Text1
 70
0
 40
0
 41
1
 50
0
 71
0
 42
2.5
  3
arial.ttf
  4

1001
ACAD
1000
Arial
1071
0
  0
STYLE
  5
2F
100
AcDbSymbolTableRecord
100
AcDbTextStyleTableRecord
  2
HS_Text1__BD
 70
0
 40
0
 41
1
 50
0
 71
0
 42
2.5
  3
arialbd.ttf
  4

1001
ACAD
1000
Arial
1071
33554432
  0
STYLE
  5
30
100
AcDbSymbolTableRecord
100
AcDbTextStyleTableRecord
  2
HS_Text1__IT
 70
0
 40
0
 41
1
 50
0
 71
0
 42
2.5
  3
arialbi.ttf
  4

1001
ACAD
1000
Arial
1071
16777216
  0
STYLE
  5
31
100
AcDbSymbolTableRecord
100
AcDbTextStyleTableRecord
  2
HS_Text1__BI
 70
0
 40
0
 41
1
 50
0
 71
0
 42
2.5
  3
arialbi.ttf
  4

1001
ACAD
1000
Arial
1071
50331648
  0
STYLE
  5
32
100
AcDbSymbolTableRecord
100
AcDbTextStyleTableRecord
  2
TextStyle_Attribute
 70
0
 40
0
 41
1
 50
0
 71
0
 42
2.5
  3
arial.ttf
  4

1001
ACAD
1000
Arial
1071
0
  0
STYLE
  5
33
100
AcDbSymbolTableRecord
100
AcDbTextStyleTableRecord
  2
TextStyle_Attribute__BD
 70
0
 40
0
 41
1
 50
0
 71
0
 42
2.5
  3
arialbd.ttf
  4

1001
ACAD
1000
Arial
1071
33554432
  0
STYLE
  5
34
100
AcDbSymbolTableRecord
100
AcDbTextStyleTableRecord
  2
TextStyle_Attribute__IT
 70
0
 40
0
 41
1
 50
0
 71
0
 42
2.5
  3
arialbi.ttf
  4

1001
ACAD
1000
Arial
1071
16777216
  0
STYLE
  5
35
100
AcDbSymbolTableRecord
100
AcDbTextStyleTableRecord
  2
TextStyle_Attribute__BI
 70
0
 40
0
 41
1
 50
0
 71
0
 42
2.5
  3
arialbi.ttf
  4

1001
ACAD
1000
Arial
1071
50331648
  0
STYLE
  5
36
100
AcDbSymbolTableRecord
100
AcDbTextStyleTableRecord
  2
TextStyle_BOM
 70
0
 40
0
 41
1
 50
0
 71
0
 42
2.5
  3
ARIALN.TTF
  4

1001
ACAD
1000
Arial Narrow
1071
0
  0
STYLE
  5
37
100
AcDbSymbolTableRecord
100
AcDbTextStyleTableRecord
  2
TextStyle_BOM__BD
 70
0
 40
0
 41
1
 50
0
 71
0
 42
2.5
  3
ARIALNB.TTF
  4

1001
ACAD
1000
Arial Narrow
1071
33554432
  0
STYLE
  5
38
100
AcDbSymbolTableRecord
100
AcDbTextStyleTableRecord
  2
TextStyle_BOM__IT
 70
0
 40
0
 41
1
 50
0
 71
0
 42
2.5
  3
ARIALNBI.TTF
  4

1001
ACAD
1000
Arial Narrow
1071
16777216
  0
STYLE
  5
39
100
AcDbSymbolTableRecord
100
AcDbTextStyleTableRecord
  2
TextStyle_BOM__BI
 70
0
 40
0
 41
1
 50
0
 71
0
 42
2.5
  3
ARIALNBI.TTF
  4

1001
ACAD
1000
Arial Narrow
1071
50331648
  0
STYLE
  5
3A
100
AcDbSymbolTableRecord
100
AcDbTextStyleTableRecord
  2
TextStyle_ConnectionLineFlow
 70
0
 40
0
 41
1
 50
0
 71
0
 42
2.5
  3
arial.ttf
  4

1001
ACAD
1000
Arial
1071
0
  0
STYLE
  5
3B
100
AcDbSymbolTableRecord
100
AcDbTextStyleTableRecord
  2
TextStyle_ConnectionLineFlow__BD
 70
0
 40
0
 41
1
 50
0
 71
0
 42
2.5
  3
arialbd.ttf
  4

1001
ACAD
1000
Arial
1071
33554432
  0
STYLE
  5
3C
100
AcDbSymbolTableRecord
100
AcDbTextStyleTableRecord
  2
TextStyle_ConnectionLineFlow__IT
 70
0
 40
0
 41
1
 50
0
 71
0
 42
2.5
  3
arialbi.ttf
  4

1001
ACAD
1000
Arial
1071
16777216
  0
STYLE
  5
3D
100
AcDbSymbolTableRecord
100
AcDbTextStyleTableRecord
  2
TextStyle_ConnectionLineFlow__BI
 70
0
 40
0
 41
1
 50
0
 71
0
 42
2.5
  3
arialbi.ttf
  4

1001
ACAD
1000
Arial
1071
50331648
  0
STYLE
  5
3E
100
AcDbSymbolTableRecord
100
AcDbTextStyleTableRecord
  2
TextStyle_ConnectionLineSize
 70
0
 40
0
 41
1
 50
0
 71
0
 42
2.5
  3
arial.ttf
  4

1001
ACAD
1000
Arial
1071
0
  0
STYLE
  5
3F
100
AcDbSymbolTableRecord
100
AcDbTextStyleTableRecord
  2
TextStyle_ConnectionLineSize__BD
 70
0
 40
0
 41
1
 50
0
 71
0
 42
2.5
  3
arialbd.ttf
  4

1001
ACAD
1000
Arial
1071
33554432
  0
STYLE
  5
40
100
AcDbSymbolTableRecord
100
AcDbTextStyleTableRecord
  2
TextStyle_ConnectionLineSize__IT
 70
0
 40
0
 41
1
 50
0
 71
0
 42
2.5
  3
arialbi.ttf
  4

1001
ACAD
1000
Arial
1071
16777216
  0
STYLE
  5
41
100
AcDbSymbolTableRecord
100
AcDbTextStyleTableRecord
  2
TextStyle_ConnectionLineSize__BI
 70
0
 40
0
 41
1
 50
0
 71
0
 42
2.5
  3
arialbi.ttf
  4

1001
ACAD
1000
Arial
1071
50331648
  0
STYLE
  5
42
100
AcDbSymbolTableRecord
100
AcDbTextStyleTableRecord
  2
TextStyle_ConnectionLineVelocity
 70
0
 40
0
 41
1
 50
0
 71
0
 42
2.5
  3
arial.ttf
  4

1001
ACAD
1000
Arial
1071
0
  0
STYLE
  5
43
100
AcDbSymbolTableRecord
100
AcDbTextStyleTableRecord
  2
TextStyle_ConnectionLineVelocity__BD
 70
0
 40
0
 41
1
 50
0
 71
0
 42
2.5
  3
arialbd.ttf
  4

1001
ACAD
1000
Arial
1071
33554432
  0
STYLE
  5
44
100
AcDbSymbolTableRecord
100
AcDbTextStyleTableRecord
  2
TextStyle_ConnectionLineVelocity__IT
 70
0
 40
0
 41
1
 50
0
 71
0
 42
2.5
  3
arialbi.ttf
  4

1001
ACAD
1000
Arial
1071
16777216
  0
STYLE
  5
45
100
AcDbSymbolTableRecord
100
AcDbTextStyleTableRecord
  2
TextStyle_ConnectionLineVelocity__BI
 70
0
 40
0
 41
1
 50
0
 71
0
 42
2.5
  3
arialbi.ttf
  4

1001
ACAD
1000
Arial
1071
50331648
  0
STYLE
  5
46
100
AcDbSymbolTableRecord
100
AcDbTextStyleTableRecord
  2
TextStyle_HoseType
 70
0
 40
0
 41
1
 50
0
 71
0
 42
2.5
  3
arial.ttf
  4

1001
ACAD
1000
Arial
1071
0
  0
STYLE
  5
47
100
AcDbSymbolTableRecord
100
AcDbTextStyleTableRecord
  2
TextStyle_HoseType__BD
 70
0
 40
0
 41
1
 50
0
 71
0
 42
2.5
  3
arialbd.ttf
  4

1001
ACAD
1000
Arial
1071
33554432
  0
STYLE
  5
48
100
AcDbSymbolTableRecord
100
AcDbTextStyleTableRecord
  2
TextStyle_HoseType__IT
 70
0
 40
0
 41
1
 50
0
 71
0
 42
2.5
  3
arialbi.ttf
  4

1001
ACAD
1000
Arial
1071
16777216
  0
STYLE
  5
49
100
AcDbSymbolTableRecord
100
AcDbTextStyleTableRecord
  2
TextStyle_HoseType__BI
 70
0
 40
0
 41
1
 50
0
 71
0
 42
2.5
  3
arialbi.ttf
  4

1001
ACAD
1000
Arial
1071
50331648
  0
STYLE
  5
4A
100
AcDbSymbolTableRecord
100
AcDbTextStyleTableRecord
  2
TextStyle_IPort
 70
0
 40
0
 41
1
 50
0
 71
0
 42
2.5
  3
arial.ttf
  4

1001
ACAD
1000
Arial
1071
0
  0
STYLE
  5
4B
100
AcDbSymbolTableRecord
100
AcDbTextStyleTableRecord
  2
TextStyle_IPort__BD
 70
0
 40
0
 41
1
 50
0
 71
0
 42
2.5
  3
arialbd.ttf
  4

1001
ACAD
1000
Arial
1071
33554432
  0
STYLE
  5
4C
100
AcDbSymbolTableRecord
100
AcDbTextStyleTableRecord
  2
TextStyle_IPort__IT
 70
0
 40
0
 41
1
 50
0
 71
0
 42
2.5
  3
arialbi.ttf
  4

1001
ACAD
1000
Arial
1071
16777216
  0
STYLE
  5
4D
100
AcDbSymbolTableRecord
100
AcDbTextStyleTableRecord
  2
TextStyle_IPort__BI
 70
0
 40
0
 41
1
 50
0
 71
0
 42
2.5
  3
arialbi.ttf
  4

1001
ACAD
1000
Arial
1071
50331648
  0
STYLE
  5
4E
100
AcDbSymbolTableRecord
100
AcDbTextStyleTableRecord
  2
TextStyle_ItemNumber
 70
0
 40
0
 41
1
 50
0
 71
0
 42
2.5
  3
arial.ttf
  4

1001
ACAD
1000
Arial
1071
0
  0
STYLE
  5
4F
100
AcDbSymbolTableRecord
100
AcDbTextStyleTableRecord
  2
TextStyle_ItemNumber__BD
 70
0
 40
0
 41
1
 50
0
 71
0
 42
2.5
  3
arialbd.ttf
  4

1001
ACAD
1000
Arial
1071
33554432
  0
STYLE
  5
50
100
AcDbSymbolTableRecord
100
AcDbTextStyleTableRecord
  2
TextStyle_ItemNumber__IT
 70
0
 40
0
 41
1
 50
0
 71
0
 42
2.5
  3
arialbi.ttf
  4

1001
ACAD
1000
Arial
1071
16777216
  0
STYLE
  5
51
100
AcDbSymbolTableRecord
100
AcDbTextStyleTableRecord
  2
TextStyle_ItemNumber__BI
 70
0
 40
0
 41
1
 50
0
 71
0
 42
2.5
  3
arialbi.ttf
  4

1001
ACAD
1000
Arial
1071
50331648
  0
STYLE
  5
52
100
AcDbSymbolTableRecord
100
AcDbTextStyleTableRecord
  2
TextStyle_Port
 70
0
 40
0
 41
1
 50
0
 71
0
 42
2.5
  3
arial.ttf
  4

1001
ACAD
1000
Arial
1071
0
  0
STYLE
  5
53
100
AcDbSymbolTableRecord
100
AcDbTextStyleTableRecord
  2
TextStyle_Port__BD
 70
0
 40
0
 41
1
 50
0
 71
0
 42
2.5
  3
arialbd.ttf
  4

1001
ACAD
1000
Arial
1071
33554432
  0
STYLE
  5
54
100
AcDbSymbolTableRecord
100
AcDbTextStyleTableRecord
  2
TextStyle_Port__IT
 70
0
 40
0
 41
1
 50
0
 71
0
 42
2.5
  3
arialbi.ttf
  4

1001
ACAD
1000
Arial
1071
16777216
  0
STYLE
  5
55
100
AcDbSymbolTableRecord
100
AcDbTextStyleTableRecord
  2
TextStyle_Port__BI
 70
0
 40
0
 41
1
 50
0
 71
0
 42
2.5
  3
arialbi.ttf
  4

1001
ACAD
1000
Arial
1071
50331648
  0
STYLE
  5
56
100
AcDbSymbolTableRecord
100
AcDbTextStyleTableRecord
  2
TextStyle_Revisions
 70
0
 40
0
 41
1
 50
0
 71
0
 42
2.5
  3
arial.ttf
  4

1001
ACAD
1000
Arial
1071
0
  0
STYLE
  5
57
100
AcDbSymbolTableRecord
100
AcDbTextStyleTableRecord
  2
TextStyle_Revisions__BD
 70
0
 40
0
 41
1
 50
0
 71
0
 42
2.5
  3
arialbd.ttf
  4

1001
ACAD
1000
Arial
1071
33554432
  0
STYLE
  5
58
100
AcDbSymbolTableRecord
100
AcDbTextStyleTableRecord
  2
TextStyle_Revisions__IT
 70
0
 40
0
 41
1
 50
0
 71
0
 42
2.5
  3
arialbi.ttf
  4

1001
ACAD
1000
Arial
1071
16777216
  0
STYLE
  5
59
100
AcDbSymbolTableRecord
100
AcDbTextStyleTableRecord
  2
TextStyle_Revisions__BI
 70
0
 40
0
 41
1
 50
0
 71
0
 42
2.5
  3
arialbi.ttf
  4

1001
ACAD
1000
Arial
1071
50331648
  0
STYLE
  5
5A
100
AcDbSymbolTableRecord
100
AcDbTextStyleTableRecord
  2
TextStyle_RevTriangle
 70
0
 40
0
 41
1
 50
0
 71
0
 42
2.5
  3
arial.ttf
  4

1001
ACAD
1000
Arial
1071
0
  0
STYLE
  5
5B
100
AcDbSymbolTableRecord
100
AcDbTextStyleTableRecord
  2
TextStyle_RevTriangle__BD
 70
0
 40
0
 41
1
 50
0
 71
0
 42
2.5
  3
arialbd.ttf
  4

1001
ACAD
1000
Arial
1071
33554432
  0
STYLE
  5
5C
100
AcDbSymbolTableRecord
100
AcDbTextStyleTableRecord
  2
TextStyle_RevTriangle__IT
 70
0
 40
0
 41
1
 50
0
 71
0
 42
2.5
  3
arialbi.ttf
  4

1001
ACAD
1000
Arial
1071
16777216
  0
STYLE
  5
5D
100
AcDbSymbolTableRecord
100
AcDbTextStyleTableRecord
  2
TextStyle_RevTriangle__BI
 70
0
 40
0
 41
1
 50
0
 71
0
 42
2.5
  3
arialbi.ttf
  4

1001
ACAD
1000
Arial
1071
50331648
  0
STYLE
  5
5E
100
AcDbSymbolTableRecord
100
AcDbTextStyleTableRecord
  2
TextStyle_Text
 70
0
 40
0
 41
1
 50
0
 71
0
 42
2.5
  3
arial.ttf
  4

1001
ACAD
1000
Arial
1071
0
  0
STYLE
  5
5F
100
AcDbSymbolTableRecord
100
AcDbTextStyleTableRecord
  2
TextStyle_Text__BD
 70
0
 40
0
 41
1
 50
0
 71
0
 42
2.5
  3
arialbd.ttf
  4

1001
ACAD
1000
Arial
1071
33554432
  0
STYLE
  5
60
100
AcDbSymbolTableRecord
100
AcDbTextStyleTableRecord
  2
TextStyle_Text__IT
 70
0
 40
0
 41
1
 50
0
 71
0
 42
2.5
  3
arialbi.ttf
  4

1001
ACAD
1000
Arial
1071
16777216
  0
STYLE
  5
61
100
AcDbSymbolTableRecord
100
AcDbTextStyleTableRecord
  2
TextStyle_Text__BI
 70
0
 40
0
 41
1
 50
0
 71
0
 42
2.5
  3
arialbi.ttf
  4

1001
ACAD
1000
Arial
1071
50331648
  0
ENDTAB
  0
TABLE
  2
LTYPE
  5
1
100
AcDbSymbolTable
  0
LTYPE
  5
9
100
AcDbSymbolTableRecord
100
AcDbLinetypeTableRecord
  2
CONTINUOUS
 70
0
  3

 72
65
 73
0
 40
0
  0
LTYPE
  5
7
100
AcDbSymbolTableRecord
100
AcDbLinetypeTableRecord
  2
BYLAYER
 70
0
  3

 72
65
 73
0
 40
0
  0
LTYPE
  5
8
100
AcDbSymbolTableRecord
100
AcDbLinetypeTableRecord
  2
BYBLOCK
 70
0
  3

 72
65
 73
0
 40
0
  0
LTYPE
  5
14
100
AcDbSymbolTableRecord
100
AcDbLinetypeTableRecord
  2
HS_Default
 70
0
  3

 72
65
 73
0
 40
0
  0
LTYPE
  5
15
100
AcDbSymbolTableRecord
100
AcDbLinetypeTableRecord
  2
HS_Solid
 70
0
  3

 72
65
 73
0
 40
0
  0
LTYPE
  5
16
100
AcDbSymbolTableRecord
100
AcDbLinetypeTableRecord
  2
HS_Hidden
 70
0
  3
_ 
 72
65
 73
2
 40
2.3
 49
1.5
 74
0
 49
-0.8
 74
0
  0
LTYPE
  5
17
100
AcDbSymbolTableRecord
100
AcDbLinetypeTableRecord
  2
HS_Dashed
 70
0
  3
_ 
 72
65
 73
2
 40
3.3
 49
2.5
 74
0
 49
-0.8
 74
0
  0
LTYPE
  5
18
100
AcDbSymbolTableRecord
100
AcDbLinetypeTableRecord
  2
HS_Border
 70
0
  3
_ _ 
 72
65
 73
4
 40
10
 49
6.5
 74
0
 49
-1
 74
0
 49
1.5
 74
0
 49
-1
 74
0
  0
ENDTAB
  0
TABLE
  2
LAYER
  5
2
100
AcDbSymbolTable
  0
LAYER
  5
E
100
AcDbSymbolTableRecord
100
AcDbLayerTableRecord
  2
0
 70
0
 62
7
  6
CONTINUOUS
290
1
370
-3
390
0
  0
LAYER
  5
19
100
AcDbSymbolTableRecord
100
AcDbLayerTableRecord
  2
HS_Symbol
 70
0
 62
7
  6
HS_Solid
290
1
370
35
390
0
  0
LAYER
  5
1A
100
AcDbSymbolTableRecord
100
AcDbLayerTableRecord
  2
HS_Solenoid
 70
0
 62
7
  6
HS_Solid
290
1
370
35
390
0
  0
LAYER
  5
1B
100
AcDbSymbolTableRecord
100
AcDbLayerTableRecord
  2
HS_Orifice
 70
0
 62
7
  6
HS_Solid
290
1
370
35
390
0
  0
LAYER
  5
1C
100
AcDbSymbolTableRecord
100
AcDbLayerTableRecord
  2
HS_Line
 70
0
 62
7
  6
HS_Solid
290
1
370
18
390
0
  0
LAYER
  5
1D
100
AcDbSymbolTableRecord
100
AcDbLayerTableRecord
  2
HS_Pilot
 70
0
 62
7
  6
HS_Dashed
290
1
370
18
390
0
  0
LAYER
  5
1E
100
AcDbSymbolTableRecord
100
AcDbLayerTableRecord
  2
HS_Drain
 70
0
 62
7
  6
HS_Hidden
290
1
370
18
390
0
  0
LAYER
  5
1F
100
AcDbSymbolTableRecord
100
AcDbLayerTableRecord
  2
HS_Border
 70
0
 62
7
  6
HS_Border
290
1
370
25
390
0
  0
LAYER
  5
20
100
AcDbSymbolTableRecord
100
AcDbLayerTableRecord
  2
HS_IBorder
 70
0
 62
7
  6
HS_Border
290
1
370
35
390
0
  0
LAYER
  5
21
100
AcDbSymbolTableRecord
100
AcDbLayerTableRecord
  2
HS_Text
 70
0
 62
7
  6
HS_Solid
290
1
390
0
  0
LAYER
  5
22
100
AcDbSymbolTableRecord
100
AcDbLayerTableRecord
  2
HS_Attribute
 70
0
 62
7
  6
HS_Solid
290
1
390
0
  0
LAYER
  5
23
100
AcDbSymbolTableRecord
100
AcDbLayerTableRecord
  2
HS_ItemNumber
 70
0
 62
7
  6
HS_Solid
290
1
390
0
  0
LAYER
  5
24
100
AcDbSymbolTableRecord
100
AcDbLayerTableRecord
  2
HS_Leader
 70
0
 62
7
  6
HS_Solid
290
1
390
0
  0
LAYER
  5
25
100
AcDbSymbolTableRecord
100
AcDbLayerTableRecord
  2
HS_Port
 70
0
 62
7
  6
HS_Solid
290
1
370
35
390
0
  0
LAYER
  5
26
100
AcDbSymbolTableRecord
100
AcDbLayerTableRecord
  2
HS_Connection_Line
 70
0
 62
7
  6
HS_Solid
290
1
370
35
390
0
  0
LAYER
  5
27
100
AcDbSymbolTableRecord
100
AcDbLayerTableRecord
  2
HS_Hose
 70
0
 62
7
  6
HS_Solid
290
1
370
35
390
0
  0
LAYER
  5
28
100
AcDbSymbolTableRecord
100
AcDbLayerTableRecord
  2
HS_Electric
 70
0
 62
7
  6
HS_Solid
290
1
370
35
390
0
  0
LAYER
  5
29
100
AcDbSymbolTableRecord
100
AcDbLayerTableRecord
  2
Pressure
 70
0
 62
30
  6
HS_Solid
290
1
370
20
390
0
  0
LAYER
  5
2A
100
AcDbSymbolTableRecord
100
AcDbLayerTableRecord
  2
Reservoir
 70
0
 62
140
  6
HS_Solid
290
1
370
20
390
0
  0
LAYER
  5
2B
100
AcDbSymbolTableRecord
100
AcDbLayerTableRecord
  2
Control
 70
0
 62
30
  6
HS_Dashed
290
1
370
20
390
0
  0
LAYER
  5
2C
100
AcDbSymbolTableRecord
100
AcDbLayerTableRecord
  2
Drain
 70
0
 62
140
  6
HS_Hidden
290
1
370
20
390
0
  0
LAYER
  5
2D
100
AcDbSymbolTableRecord
100
AcDbLayerTableRecord
  2
Working
 70
0
 62
70
  6
HS_Solid
290
1
370
20
390
0
  0
ENDTAB
  0
TABLE
  2
VPORT
  5
6A
100
AcDbSymbolTable
  0
VPORT
  5
6C
100
AcDbSymbolTableRecord
100
AcDbViewportTableRecord
  2
*ACTIVE
 70
0
 10
0
 20
0
 11
1
 21
1
 12
8.5
 22
4.5
 32
0
 13
0
 23
0
 14
1
 24
1
 15
1
 25
1
 16
0
 26
0
 36
1
 17
0
 27
0
 37
0
 40
85
 41
1.02352941176471
 42
50
 43
0
 44
0
 50
0
 51
0
 71
0
 72
100
 73
1
 74
1
 75
0
 76
0
 77
0
 78
0
  0
ENDTAB
  0
TABLE
  2
VIEW
  5
6D
100
AcDbSymbolTable
  0
ENDTAB
  0
TABLE
  2
UCS
  5
6E
100
AcDbSymbolTable
  0
ENDTAB
  0
TABLE
  2
DIMSTYLE
  5
4
100
AcDbSymbolTable
 70
1
100
AcDbDimStyleTable
 71
0
  0
DIMSTYLE
105
B
100
AcDbSymbolTableRecord
100
AcDbDimStyleTableRecord
  2
STANDARD
 70
0
  3

 40
1
 41
0.18
 42
0.0625
 44
0.18
 47
0
 48
0
 73
1
 74
1
 75
0
 76
0
 77
0
140
0.18
141
0.09
144
1
147
0.0625
173
0
174
0
176
0
177
0
178
0
277
2
278
46
281
0
282
0
271
4
340
A
371
-1
372
-1
  0
ENDTAB
  0
ENDSEC
  0
SECTION
  2
BLOCKS
  0
BLOCK
  5
6F
100
AcDbEntity
  8
0
100
AcDbBlockBegin
  2
*MODEL_SPACE
 70
0
 10
0
 20
0
  0
ENDBLK
  5
70
100
AcDbEntity
  8
0
100
AcDbBlockEnd
  0
BLOCK
  5
71
100
AcDbEntity
  8
0
100
AcDbBlockBegin
  2
*PAPER_SPACE
 70
0
 10
0
 20
0
  0
ENDBLK
  5
72
100
AcDbEntity
  8
0
100
AcDbBlockEnd
  0
BLOCK
  5
F
100
AcDbEntity
  8
0
100
AcDbBlockBegin
  2
_CLOSEDFILLED
 70
0
 10
0
 20
0
 30
0
  3
_CLOSEDFILLED
  1

  0
SOLID
  5
C
100
AcDbEntity
  8
0
100
AcDbTrace
370
-2
 62
0
 10
-1
 20
0.166666666666667
 30
0
 11
0
 21
0
 31
0
 12
-1
 22
0.166666666666667
 32
0
 13
-1
 23
-0.166666666666667
 33
0
  0
LINE
  5
D
100
AcDbEntity
  8
0
100
AcDbLine
370
-2
 62
0
 10
-1
 20
0
 30
0
 11
-2
 21
0
 31
0
  0
ENDBLK
  5
73
100
AcDbEntity
  8
0
100
AcDbBlockEnd
  0
ENDSEC
  0
SECTION
  2
ENTITIES
  0
LWPOLYLINE
  5
74
100
AcDbEntity
  8
HS_Symbol
100
AcDbPolyline
370
-1
 38
0
 90
4
 70
1
 10
-11
 20
36
 10
13
 20
36
 10
13
 20
28
 10
-11
 20
28
  0
LINE
  5
75
100
AcDbEntity
  8
HS_Symbol
100
AcDbLine
370
-1
 10
-10
 20
37
 30
0
 11
12
 21
37
 31
0
  0
LINE
  5
76
100
AcDbEntity
  8
HS_Symbol
100
AcDbLine
370
-1
 10
-10
 20
27
 30
0
 11
12
 21
27
 31
0
  0
LINE
  5
77
100
AcDbEntity
  8
HS_Symbol
100
AcDbLine
370
-1
 10
-3
 20
36
 30
0
 11
-3
 21
28
 31
0
  0
LINE
  5
78
100
AcDbEntity
  8
HS_Symbol
100
AcDbLine
370
-1
 10
5
 20
36
 30
0
 11
5
 21
28
 31
0
  0
LINE
  5
79
100
AcDbEntity
  8
HS_Symbol
100
AcDbLine
370
-1
 10
-5
 20
36
 30
0
 11
-5
 21
34
 31
0
  0
LINE
  5
7A
100
AcDbEntity
  8
HS_Symbol
100
AcDbLine
370
-1
 10
-4
 20
33.9999999562886
 30
0
 11
-6
 21
34.0000000437114
 31
0
  0
LINE
  5
7B
100
AcDbEntity
  8
HS_Symbol
100
AcDbLine
370
-1
 10
7
 20
36
 30
0
 11
7
 21
34
 31
0
  0
LINE
  5
7C
100
AcDbEntity
  8
HS_Symbol
100
AcDbLine
370
-1
 10
8
 20
33.9999999562886
 30
0
 11
6
 21
34.0000000437114
 31
0
  0
LINE
  5
7D
100
AcDbEntity
  8
HS_Symbol
100
AcDbLine
370
-1
 10
-7
 20
28
 30
0
 11
-8.51492874992733
 21
34.0597149997093
 31
0
  0
SOLID
  5
7E
100
AcDbEntity
  8
HS_Symbol
100
AcDbTrace
370
-1
  6
HS_Solid
 10
-9.03482654884144
 20
33.9297405499808
 30
0
 11
-7.99503095101323
 21
34.1896894494379
 31
0
 12
-9
 22
36
 32
0
 13
-9
 23
36
 33
0
  0
LINE
  5
7F
100
AcDbEntity
  8
HS_Symbol
100
AcDbLine
370
-1
 10
11
 20
36
 30
0
 11
9.48507125007267
 21
29.9402850002907
 31
0
  0
SOLID
  5
80
100
AcDbEntity
  8
HS_Symbol
100
AcDbTrace
370
-1
  6
HS_Solid
 10
10.0049690489868
 20
29.8103105505621
 30
0
 11
8.96517345115856
 21
30.0702594500192
 31
0
 12
9
 22
28
 32
0
 13
9
 23
28
 33
0
  0
LINE
  5
81
100
AcDbEntity
  8
HS_Symbol
100
AcDbLine
370
-1
 10
-1
 20
36
 30
0
 11
-1
 21
34
 31
0
  0
LINE
  5
82
100
AcDbEntity
  8
HS_Symbol
100
AcDbLine
370
-1
 10
-8.88178419700125E-16
 20
33.9999999562886
 30
0
 11
-2
 21
34.0000000437114
 31
0
  0
LINE
  5
83
100
AcDbEntity
  8
HS_Symbol
100
AcDbLine
370
-1
 10
3
 20
36
 30
0
 11
3
 21
34
 31
0
  0
LINE
  5
84
100
AcDbEntity
  8
HS_Symbol
100
AcDbLine
370
-1
 10
4
 20
33.9999999562886
 30
0
 11
2
 21
34.0000000437114
 31
0
  0
LINE
  5
85
100
AcDbEntity
  8
HS_Symbol
100
AcDbLine
370
-1
 10
1
 20
28
 30
0
 11
1
 21
30
 31
0
  0
LINE
  5
86
100
AcDbEntity
  8
HS_Symbol
100
AcDbLine
370
-1
 10
8.88178419700125E-16
 20
29.9999999562886
 30
0
 11
2
 21
30.0000000437114
 31
0
  0
LWPOLYLINE
  5
87
100
AcDbEntity
  8
HS_Symbol
100
AcDbPolyline
370
-1
 38
0
 90
8
 70
0
 10
-11
 20
30
 10
-11.4166666666667
 20
32
 10
-12.25
 20
28
 10
-13.0833333333333
 20
32
 10
-13.9166666666667
 20
28
 10
-14.75
 20
32
 10
-15.5833333333333
 20
28
 10
-16
 20
30
  0
LWPOLYLINE
  5
88
100
AcDbEntity
  8
HS_Symbol
100
AcDbPolyline
370
-1
 38
0
 90
4
 70
1
 10
-9
 20
13
 10
15
 20
13
 10
15
 20
5
 10
-9
 20
5
  0
LINE
  5
89
100
AcDbEntity
  8
HS_Symbol
100
AcDbLine
370
-1
 10
-8
 20
14
 30
0
 11
14
 21
14
 31
0
  0
LINE
  5
8A
100
AcDbEntity
  8
HS_Symbol
100
AcDbLine
370
-1
 10
-8
 20
4
 30
0
 11
14
 21
4
 31
0
  0
LINE
  5
8B
100
AcDbEntity
  8
HS_Symbol
100
AcDbLine
370
-1
 10
-1
 20
13
 30
0
 11
-1
 21
5
 31
0
  0
LINE
  5
8C
100
AcDbEntity
  8
HS_Symbol
100
AcDbLine
370
-1
 10
7
 20
13
 30
0
 11
7
 21
5
 31
0
  0
LINE
  5
8D
100
AcDbEntity
  8
HS_Symbol
100
AcDbLine
370
-1
 10
-3
 20
13
 30
0
 11
-3
 21
11
 31
0
  0
LINE
  5
8E
100
AcDbEntity
  8
HS_Symbol
100
AcDbLine
370
-1
 10
-2
 20
10.9999999562886
 30
0
 11
-4
 21
11.0000000437114
 31
0
  0
LINE
  5
8F
100
AcDbEntity
  8
HS_Symbol
100
AcDbLine
370
-1
 10
9
 20
13
 30
0
 11
9
 21
11
 31
0
  0
LINE
  5
90
100
AcDbEntity
  8
HS_Symbol
100
AcDbLine
370
-1
 10
10
 20
10.9999999562886
 30
0
 11
8
 21
11.0000000437114
 31
0
  0
LINE
  5
91
100
AcDbEntity
  8
HS_Symbol
100
AcDbLine
370
-1
 10
-5
 20
5
 30
0
 11
-6.51492874992733
 21
11.0597149997093
 31
0
  0
SOLID
  5
92
100
AcDbEntity
  8
HS_Symbol
100
AcDbTrace
370
-1
  6
HS_Solid
 10
-7.03482654884144
 20
10.9297405499808
 30
0
 11
-5.99503095101323
 21
11.1896894494379
 31
0
 12
-7
 22
13
 32
0
 13
-7
 23
13
 33
0
  0
LINE
  5
93
100
AcDbEntity
  8
HS_Symbol
100
AcDbLine
370
-1
 10
13
 20
13
 30
0
 11
11.4850712500727
 21
6.94028500029066
 31
0
  0
SOLID
  5
94
100
AcDbEntity
  8
HS_Symbol
100
AcDbTrace
370
-1
  6
HS_Solid
 10
12.0049690489868
 20
6.81031055056214
 30
0
 11
10.9651734511586
 21
7.07025945001919
 31
0
 12
11
 22
5
 32
0
 13
11
 23
5
 33
0
  0
LINE
  5
95
100
AcDbEntity
  8
HS_Symbol
100
AcDbLine
370
-1
 10
1
 20
13
 30
0
 11
1
 21
11
 31
0
  0
LINE
  5
96
100
AcDbEntity
  8
HS_Symbol
100
AcDbLine
370
-1
 10
2
 20
10.9999999562886
 30
0
 11
8.88178419700125E-16
 21
11.0000000437114
 31
0
  0
LINE
  5
97
100
AcDbEntity
  8
HS_Symbol
100
AcDbLine
370
-1
 10
5
 20
13
 30
0
 11
5
 21
11
 31
0
  0
LINE
  5
98
100
AcDbEntity
  8
HS_Symbol
100
AcDbLine
370
-1
 10
6
 20
10.9999999562886
 30
0
 11
4
 21
11.0000000437114
 31
0
  0
LINE
  5
99
100
AcDbEntity
  8
HS_Symbol
100
AcDbLine
370
-1
 10
3
 20
5
 30
0
 11
3
 21
7
 31
0
  0
LINE
  5
9A
100
AcDbEntity
  8
HS_Symbol
100
AcDbLine
370
-1
 10
2
 20
6.99999995628861
 30
0
 11
4
 21
7.00000004371139
 31
0
  0
LWPOLYLINE
  5
9B
100
AcDbEntity
  8
HS_Symbol
100
AcDbPolyline
370
-1
 38
0
 90
8
 70
0
 10
-9
 20
7
 10
-9.41666666666667
 20
9
 10
-10.25
 20
5
 10
-11.0833333333333
 20
9
 10
-11.9166666666667
 20
5
 10
-12.75
 20
9
 10
-13.5833333333333
 20
5
 10
-14
 20
7
  0
LINE
  5
9C
100
AcDbEntity
  8
HS_Orifice
100
AcDbLine
370
-1
 10
-10
 20
0
 30
0
 11
-14
 21
0
 31
0
  0
CIRCLE
  5
9D
100
AcDbEntity
  8
HS_Orifice
100
AcDbCircle
370
-1
 10
-12
 20
0
 30
0
 40
2
  0
ARC
  5
9E
100
AcDbEntity
  8
HS_Orifice
100
AcDbCircle
370
-1
 10
-11.9999998994638
 20
-2.3
 30
0
 40
1.5
100
AcDbArc
 50
48.1896879665374
 51
131.810317758094
  0
ARC
  5
9F
100
AcDbEntity
  8
HS_Orifice
100
AcDbCircle
370
-1
 10
-11.9999998994638
 20
2.3
 30
0
 40
1.5
100
AcDbArc
 50
228.189682241906
 51
311.810312033463
  0
LINE
  5
A0
100
AcDbEntity
  8
HS_Symbol
100
AcDbLine
370
-1
 10
-21
 20
-3
 30
0
 11
-21
 21
-5
 31
0
  0
LINE
  5
A1
100
AcDbEntity
  8
HS_Symbol
100
AcDbLine
370
-1
 10
-21
 20
-5
 30
0
 11
-17
 21
-5
 31
0
  0
LINE
  5
A2
100
AcDbEntity
  8
HS_Symbol
100
AcDbLine
370
-1
 10
-17
 20
-5
 30
0
 11
-17
 21
-3
 31
0
  0
LINE
  5
A3
100
AcDbEntity
  8
HS_Orifice
100
AcDbLine
370
-1
 10
-23
 20
11
 30
0
 11
-27
 21
11
 31
0
  0
CIRCLE
  5
A4
100
AcDbEntity
  8
HS_Orifice
100
AcDbCircle
370
-1
 10
-25
 20
11
 30
0
 40
2
  0
ARC
  5
A5
100
AcDbEntity
  8
HS_Orifice
100
AcDbCircle
370
-1
 10
-24.9999998994638
 20
8.7
 30
0
 40
1.5
100
AcDbArc
 50
48.1896879665374
 51
131.810317758095
  0
ARC
  5
A6
100
AcDbEntity
  8
HS_Orifice
100
AcDbCircle
370
-1
 10
-24.9999998994638
 20
13.3
 30
0
 40
1.5
100
AcDbArc
 50
228.189682241905
 51
311.810312033463
  0
LINE
  5
A7
100
AcDbEntity
  8
HS_IBorder
100
AcDbLine
370
-1
 10
-35
 20
-7
 30
0
 11
-35
 21
47
 31
0
  0
LINE
  5
A8
100
AcDbEntity
  8
HS_IBorder
100
AcDbLine
370
-1
 10
-35
 20
47
 30
0
 11
-32
 21
47
 31
0
  0
LINE
  5
A9
100
AcDbEntity
  8
HS_IBorder
100
AcDbLine
370
-1
 10
-30
 20
47
 30
0
 11
35
 21
47
 31
0
  0
LINE
  5
AA
100
AcDbEntity
  8
HS_IBorder
100
AcDbLine
370
-1
 10
35
 20
-7
 30
0
 11
35
 21
47
 31
0
  0
LINE
  5
AB
100
AcDbEntity
  8
HS_IBorder
100
AcDbLine
370
-1
 10
-35
 20
-7
 30
0
 11
35
 21
-7
 31
0
  0
LINE
  5
AC
100
AcDbEntity
  8
HS_Connection_Line
100
AcDbLine
370
-1
  6
HS_Hidden
 10
-7
 20
28
 30
0
 11
-7
 21
13
 31
0
  0
LINE
  5
AD
100
AcDbEntity
  8
HS_Connection_Line
100
AcDbLine
370
-1
  6
HS_Hidden
 10
-5
 20
5
 30
0
 11
-5
 21
0
 31
0
  0
LINE
  5
AE
100
AcDbEntity
  8
HS_Connection_Line
100
AcDbLine
370
-1
  6
HS_Hidden
 10
-14
 20
0
 30
0
 11
-19
 21
0
 31
0
  0
CIRCLE
  5
AF
100
AcDbEntity
  8
HS_Connection_Line
100
AcDbCircle
370
-1
  6
HS_Solid
 10
-19
 20
0
 30
0
 40
0.8
  0
LWPOLYLINE
  5
B0
100
AcDbEntity
  8
HS_Connection_Line
100
AcDbPolyline
  6
HS_Solid
 38
0
 90
34
 70
0
 10
-19.3664982778327
 20
0.711111111111111
 10
-18.6335017221673
 20
0.711111111111111
 10
-19.5028314888438
 20
0.622222222222222
 10
-18.4971685111562
 20
0.622222222222222
 10
-19.5962847939999
 20
0.533333333333333
 10
-18.4037152060001
 20
0.533333333333333
 10
-19.6651835354265
 20
0.444444444444444
 10
-18.3348164645735
 20
0.444444444444444
 10
-19.7166451331821
 20
0.355555555555556
 10
-18.2833548668179
 20
0.355555555555556
 10
-19.7542472332657
 20
0.266666666666667
 10
-18.2457527667344
 20
0.266666666666667
 10
-19.7799968344349
 20
0.177777777777778
 10
-18.2200031655651
 20
0.177777777777778
 10
-19.7950463919999
 20
0.0888888888888889
 10
-18.2049536080001
 20
0.0888888888888889
 10
-19.8
 20
0
 10
-18.2
 20
0
 10
-19.7950463919999
 20
-0.0888888888888889
 10
-18.2049536080001
 20
-0.0888888888888889
 10
-19.7799968344349
 20
-0.177777777777778
 10
-18.2200031655651
 20
-0.177777777777778
 10
-19.7542472332657
 20
-0.266666666666667
 10
-18.2457527667344
 20
-0.266666666666667
 10
-19.7166451331821
 20
-0.355555555555556
 10
-18.2833548668179
 20
-0.355555555555556
 10
-19.6651835354265
 20
-0.444444444444444
 10
-18.3348164645735
 20
-0.444444444444444
 10
-19.5962847939999
 20
-0.533333333333333
 10
-18.4037152060001
 20
-0.533333333333333
 10
-19.5028314888438
 20
-0.622222222222222
 10
-18.4971685111562
 20
-0.622222222222222
 10
-19.3664982778327
 20
-0.711111111111111
 10
-18.6335017221673
 20
-0.711111111111111
  0
LINE
  5
B1
100
AcDbEntity
  8
HS_Connection_Line
100
AcDbLine
370
-1
  6
HS_Hidden
 10
-19
 20
0
 30
0
 11
-19
 21
-5
 31
0
  0
LINE
  5
B2
100
AcDbEntity
  8
HS_Connection_Line
100
AcDbLine
370
-1
  6
HS_Hidden
 10
-19
 20
0
 30
0
 11
-19
 21
11
 31
0
  0
CIRCLE
  5
B3
100
AcDbEntity
  8
HS_Connection_Line
100
AcDbCircle
370
-1
  6
HS_Solid
 10
-19
 20
11
 30
0
 40
0.8
  0
LWPOLYLINE
  5
B4
100
AcDbEntity
  8
HS_Connection_Line
100
AcDbPolyline
  6
HS_Solid
 38
0
 90
34
 70
0
 10
-19.3664982778327
 20
11.7111111111111
 10
-18.6335017221673
 20
11.7111111111111
 10
-19.5028314888438
 20
11.6222222222222
 10
-18.4971685111562
 20
11.6222222222222
 10
-19.5962847939999
 20
11.5333333333333
 10
-18.4037152060001
 20
11.5333333333333
 10
-19.6651835354265
 20
11.4444444444444
 10
-18.3348164645735
 20
11.4444444444444
 10
-19.7166451331821
 20
11.3555555555556
 10
-18.2833548668179
 20
11.3555555555556
 10
-19.7542472332657
 20
11.2666666666667
 10
-18.2457527667344
 20
11.2666666666667
 10
-19.7799968344349
 20
11.1777777777778
 10
-18.2200031655651
 20
11.1777777777778
 10
-19.7950463919999
 20
11.0888888888889
 10
-18.2049536080001
 20
11.0888888888889
 10
-19.8
 20
11
 10
-18.2
 20
11
 10
-19.7950463919999
 20
10.9111111111111
 10
-18.2049536080001
 20
10.9111111111111
 10
-19.7799968344349
 20
10.8222222222222
 10
-18.2200031655651
 20
10.8222222222222
 10
-19.7542472332657
 20
10.7333333333333
 10
-18.2457527667344
 20
10.7333333333333
 10
-19.7166451331821
 20
10.6444444444444
 10
-18.2833548668179
 20
10.6444444444444
 10
-19.6651835354265
 20
10.5555555555556
 10
-18.3348164645735
 20
10.5555555555556
 10
-19.5962847939999
 20
10.4666666666667
 10
-18.4037152060001
 20
10.4666666666667
 10
-19.5028314888438
 20
10.3777777777778
 10
-18.4971685111562
 20
10.3777777777778
 10
-19.3664982778327
 20
10.2888888888889
 10
-18.6335017221673
 20
10.2888888888889
  0
LINE
  5
B5
100
AcDbEntity
  8
HS_Connection_Line
100
AcDbLine
370
-1
  6
HS_Hidden
 10
-19
 20
11
 30
0
 11
-23
 21
11
 31
0
  0
LINE
  5
B6
100
AcDbEntity
  8
HS_Connection_Line
100
AcDbLine
370
-1
  6
HS_Hidden
 10
-19
 20
11
 30
0
 11
-9
 21
11
 31
0
  0
LINE
  5
B7
100
AcDbEntity
  8
HS_Connection_Line
100
AcDbLine
370
-1
  6
HS_Hidden
 10
-27
 20
11
 30
0
 11
-31
 21
11
 31
0
  0
LINE
  5
B8
100
AcDbEntity
  8
HS_Connection_Line
100
AcDbLine
370
-1
  6
HS_Hidden
 10
-31
 20
11
 30
0
 11
-31
 21
34
 31
0
  0
LINE
  5
B9
100
AcDbEntity
  8
HS_Connection_Line
100
AcDbLine
370
-1
  6
HS_Hidden
 10
-11
 20
34
 30
0
 11
-25
 21
34
 31
0
  0
CIRCLE
  5
BA
100
AcDbEntity
  8
HS_Connection_Line
100
AcDbCircle
370
-1
  6
HS_Solid
 10
-25
 20
34
 30
0
 40
0.8
  0
LWPOLYLINE
  5
BB
100
AcDbEntity
  8
HS_Connection_Line
100
AcDbPolyline
  6
HS_Solid
 38
0
 90
34
 70
0
 10
-25.3664982778327
 20
34.7111111111111
 10
-24.6335017221673
 20
34.7111111111111
 10
-25.5028314888438
 20
34.6222222222222
 10
-24.4971685111562
 20
34.6222222222222
 10
-25.5962847939999
 20
34.5333333333333
 10
-24.4037152060001
 20
34.5333333333333
 10
-25.6651835354265
 20
34.4444444444445
 10
-24.3348164645735
 20
34.4444444444445
 10
-25.7166451331821
 20
34.3555555555556
 10
-24.2833548668179
 20
34.3555555555556
 10
-25.7542472332657
 20
34.2666666666667
 10
-24.2457527667344
 20
34.2666666666667
 10
-25.7799968344349
 20
34.1777777777778
 10
-24.2200031655651
 20
34.1777777777778
 10
-25.7950463919999
 20
34.0888888888889
 10
-24.2049536080001
 20
34.0888888888889
 10
-25.8
 20
34
 10
-24.2
 20
34
 10
-25.7950463919999
 20
33.9111111111111
 10
-24.2049536080001
 20
33.9111111111111
 10
-25.7799968344349
 20
33.8222222222222
 10
-24.2200031655651
 20
33.8222222222222
 10
-25.7542472332657
 20
33.7333333333333
 10
-24.2457527667344
 20
33.7333333333333
 10
-25.7166451331821
 20
33.6444444444444
 10
-24.2833548668179
 20
33.6444444444444
 10
-25.6651835354265
 20
33.5555555555556
 10
-24.3348164645735
 20
33.5555555555556
 10
-25.5962847939999
 20
33.4666666666667
 10
-24.4037152060001
 20
33.4666666666667
 10
-25.5028314888438
 20
33.3777777777778
 10
-24.4971685111562
 20
33.3777777777778
 10
-25.3664982778327
 20
33.2888888888889
 10
-24.6335017221673
 20
33.2888888888889
  0
LINE
  5
BC
100
AcDbEntity
  8
HS_Connection_Line
100
AcDbLine
370
-1
  6
HS_Hidden
 10
-5
 20
36
 30
0
 11
-5
 21
43
 31
0
  0
CIRCLE
  5
BD
100
AcDbEntity
  8
HS_Orifice
100
AcDbCircle
370
-1
 10
-14
 20
43
 30
0
 40
2
  0
LINE
  5
BE
100
AcDbEntity
  8
HS_Orifice
100
AcDbLine
370
-1
 10
-15.4142135623731
 20
44.4142135623731
 30
0
 11
-12.5857864376269
 21
41.5857864376269
 31
0
  0
LINE
  5
BF
100
AcDbEntity
  8
HS_Orifice
100
AcDbLine
370
-1
 10
-15.4142135623731
 20
41.5857864376269
 30
0
 11
-12.5857864376269
 21
44.4142135623731
 31
0
  0
SOLID
  5
C0
100
AcDbEntity
  8
HS_Symbol
100
AcDbTrace
370
-1
  6
HS_Solid
 10
41.9999998688658
 20
-22
 30
0
 11
40.5000033495304
 21
-25.0000001311339
 31
0
 12
43.4999966504696
 22
-25
 32
0
 13
43.4999966504696
 23
-25
 33
0
  0
CIRCLE
  5
C1
100
AcDbEntity
  8
HS_Symbol
100
AcDbCircle
370
-1
 10
42
 20
-28
 30
0
 40
6
  0
LINE
  5
C2
100
AcDbEntity
  8
HS_Symbol
100
AcDbLine
370
-1
 10
36.1
 20
-27
 30
0
 11
21
 21
-27
 31
0
  0
LINE
  5
C3
100
AcDbEntity
  8
HS_Symbol
100
AcDbLine
370
-1
 10
21
 20
-29
 30
0
 11
36.1
 21
-29
 31
0
  0
LINE
  5
C4
100
AcDbEntity
  8
HS_Symbol
100
AcDbLine
370
-1
 10
21
 20
-27
 30
0
 11
21
 21
-29
 31
0
  0
LINE
  5
C5
100
AcDbEntity
  8
HS_Symbol
100
AcDbLine
370
-1
 10
8
 20
-9.6
 30
0
 11
8
 21
-14.4
 31
0
  0
LINE
  5
C6
100
AcDbEntity
  8
HS_Symbol
100
AcDbLine
370
-1
 10
8
 20
-14.4
 30
0
 11
10
 21
-14.4
 31
0
  0
LINE
  5
C7
100
AcDbEntity
  8
HS_Symbol
100
AcDbLine
370
-1
 10
8
 20
-9.6
 30
0
 11
10
 21
-9.6
 31
0
  0
LINE
  5
C8
100
AcDbEntity
  8
HS_Symbol
100
AcDbLine
370
-1
 10
9.5
 20
-10.5
 30
0
 11
9.5
 21
-13.5
 31
0
  0
LINE
  5
C9
100
AcDbEntity
  8
HS_Symbol
100
AcDbLine
370
-1
 10
16
 20
-13.7
 30
0
 11
16
 21
-13.2
 31
0
  0
LINE
  5
CA
100
AcDbEntity
  8
HS_Symbol
100
AcDbLine
370
-1
 10
16
 20
-13.2
 30
0
 11
26.5
 21
-13.2
 31
0
  0
LINE
  5
CB
100
AcDbEntity
  8
HS_Symbol
100
AcDbLine
370
-1
 10
26.5
 20
-13.2
 30
0
 11
26.5
 21
-10.8
 31
0
  0
LINE
  5
CC
100
AcDbEntity
  8
HS_Symbol
100
AcDbLine
370
-1
 10
26.5
 20
-10.8
 30
0
 11
16
 21
-10.8
 31
0
  0
LINE
  5
CD
100
AcDbEntity
  8
HS_Symbol
100
AcDbLine
370
-1
 10
16
 20
-10.8
 30
0
 11
16
 21
-10.3
 31
0
  0
LINE
  5
CE
100
AcDbEntity
  8
HS_Symbol
100
AcDbLine
370
-1
 10
12
 20
-9.6
 30
0
 11
8
 21
-9.6
 31
0
  0
LINE
  5
CF
100
AcDbEntity
  8
HS_Symbol
100
AcDbLine
370
-1
 10
8
 20
-14.4
 30
0
 11
12
 21
-14.4
 31
0
  0
LINE
  5
D0
100
AcDbEntity
  8
HS_Symbol
100
AcDbLine
370
-1
 10
12
 20
-14.4
 30
0
 11
12.2
 21
-14.2
 31
0
  0
LINE
  5
D1
100
AcDbEntity
  8
HS_Symbol
100
AcDbLine
370
-1
 10
12.2
 20
-14.2
 30
0
 11
9.5
 21
-14.2
 31
0
  0
LINE
  5
D2
100
AcDbEntity
  8
HS_Symbol
100
AcDbLine
370
-1
 10
12
 20
-9.6
 30
0
 11
12.2
 21
-9.8
 31
0
  0
LINE
  5
D3
100
AcDbEntity
  8
HS_Symbol
100
AcDbLine
370
-1
 10
12.2
 20
-9.8
 30
0
 11
9.5
 21
-9.8
 31
0
  0
LINE
  5
D4
100
AcDbEntity
  8
HS_Symbol
100
AcDbLine
370
-1
 10
9.5
 20
-9.8
 30
0
 11
9.5
 21
-14.2
 31
0
  0
LINE
  5
D5
100
AcDbEntity
  8
HS_Symbol
100
AcDbLine
370
-1
 10
12.2
 20
-9.8
 30
0
 11
16
 21
-9.8
 31
0
  0
LINE
  5
D6
100
AcDbEntity
  8
HS_Symbol
100
AcDbLine
370
-1
 10
16
 20
-9.8
 30
0
 11
16
 21
-10.8
 31
0
  0
LINE
  5
D7
100
AcDbEntity
  8
HS_Symbol
100
AcDbLine
370
-1
 10
12.2
 20
-14.2
 30
0
 11
16
 21
-14.2
 31
0
  0
LINE
  5
D8
100
AcDbEntity
  8
HS_Symbol
100
AcDbLine
370
-1
 10
16
 20
-14.2
 30
0
 11
16
 21
-13.2
 31
0
  0
LINE
  5
D9
100
AcDbEntity
  8
HS_Symbol
100
AcDbLine
370
-1
 10
24.4
 20
-10.6
 30
0
 11
27.6
 21
-10.6
 31
0
  0
LINE
  5
DA
100
AcDbEntity
  8
HS_Symbol
100
AcDbLine
370
-1
 10
23.6
 20
-10.6
 30
0
 11
27.6
 21
-10.6
 31
0
  0
LINE
  5
DB
100
AcDbEntity
  8
HS_Symbol
100
AcDbLine
370
-1
 10
23.6
 20
-10.6
 30
0
 11
23.4
 21
-10.8
 31
0
  0
LINE
  5
DC
100
AcDbEntity
  8
HS_Symbol
100
AcDbLine
370
-1
 10
23.4
 20
-13.2
 30
0
 11
23.6
 21
-13.4
 31
0
  0
LINE
  5
DD
100
AcDbEntity
  8
HS_Symbol
100
AcDbLine
370
-1
 10
23.6
 20
-13.4
 30
0
 11
27.6
 21
-13.4
 31
0
  0
LINE
  5
DE
100
AcDbEntity
  8
HS_Symbol
100
AcDbLine
370
-1
 10
27.6
 20
-10.6
 30
0
 11
27.6
 21
-13.4
 31
0
  0
LWPOLYLINE
  5
DF
100
AcDbEntity
  8
HS_Symbol
100
AcDbPolyline
370
-1
 38
0
 90
10
 70
0
 10
26.5
 20
-12
 10
26.56875
 20
-11.7
 10
26.70625
 20
-12.3
 10
26.84375
 20
-11.7
 10
26.98125
 20
-12.3
 10
27.11875
 20
-11.7
 10
27.25625
 20
-12.3
 10
27.39375
 20
-11.7
 10
27.53125
 20
-12.3
 10
27.6
 20
-12
  0
CIRCLE
  5
E0
100
AcDbEntity
  8
HS_Symbol
100
AcDbCircle
370
-1
 10
17.5
 20
-12
 30
0
 40
1
  0
LINE
  5
E1
100
AcDbEntity
  8
HS_Symbol
100
AcDbLine
370
-1
 10
17.5
 20
-12
 30
0
 11
49
 21
-33
 31
0
  0
SOLID
  5
E2
100
AcDbEntity
  8
HS_Symbol
100
AcDbTrace
370
-1
  6
HS_Solid
 10
41.9999998688658
 20
-22
 30
0
 11
40.5000033495304
 21
-25.0000001311339
 31
0
 12
43.4999966504696
 22
-25
 32
0
 13
43.4999966504696
 23
-25
 33
0
  0
CIRCLE
  5
E3
100
AcDbEntity
  8
HS_Symbol
100
AcDbCircle
370
-1
 10
42
 20
-28
 30
0
 40
6
  0
SOLID
  5
E4
100
AcDbEntity
  8
HS_Symbol
100
AcDbTrace
370
-1
  6
HS_Solid
 10
41.9999998688658
 20
-22
 30
0
 11
40.5000033495304
 21
-25.0000001311339
 31
0
 12
43.4999966504696
 22
-25
 32
0
 13
43.4999966504696
 23
-25
 33
0
  0
CIRCLE
  5
E5
100
AcDbEntity
  8
HS_Symbol
100
AcDbCircle
370
-1
 10
42
 20
-28
 30
0
 40
6
  0
CIRCLE
  5
E6
100
AcDbEntity
  8
HS_Connection_Line
100
AcDbCircle
370
-1
  6
HS_Solid
 10
-5
 20
43
 30
0
 40
0.8
  0
LWPOLYLINE
  5
E7
100
AcDbEntity
  8
HS_Connection_Line
100
AcDbPolyline
  6
HS_Solid
 38
0
 90
34
 70
0
 10
-5.36649827783268
 20
43.7111111111111
 10
-4.63350172216732
 20
43.7111111111111
 10
-5.50283148884377
 20
43.6222222222222
 10
-4.49716851115623
 20
43.6222222222222
 10
-5.59628479399994
 20
43.5333333333333
 10
-4.40371520600006
 20
43.5333333333333
 10
-5.66518353542648
 20
43.4444444444445
 10
-4.33481646457352
 20
43.4444444444445
 10
-5.71664513318209
 20
43.3555555555556
 10
-4.28335486681791
 20
43.3555555555556
 10
-5.75424723326565
 20
43.2666666666667
 10
-4.24575276673435
 20
43.2666666666667
 10
-5.77999683443486
 20
43.1777777777778
 10
-4.22000316556514
 20
43.1777777777778
 10
-5.79504639199993
 20
43.0888888888889
 10
-4.20495360800007
 20
43.0888888888889
 10
-5.8
 20
43
 10
-4.2
 20
43
 10
-5.79504639199993
 20
42.9111111111111
 10
-4.20495360800007
 20
42.9111111111111
 10
-5.77999683443486
 20
42.8222222222222
 10
-4.22000316556514
 20
42.8222222222222
 10
-5.75424723326565
 20
42.7333333333333
 10
-4.24575276673435
 20
42.7333333333333
 10
-5.71664513318209
 20
42.6444444444444
 10
-4.28335486681791
 20
42.6444444444444
 10
-5.66518353542648
 20
42.5555555555556
 10
-4.33481646457352
 20
42.5555555555556
 10
-5.59628479399994
 20
42.4666666666667
 10
-4.40371520600006
 20
42.4666666666667
 10
-5.50283148884377
 20
42.3777777777778
 10
-4.49716851115623
 20
42.3777777777778
 10
-5.36649827783268
 20
42.2888888888889
 10
-4.63350172216732
 20
42.2888888888889
  0
LINE
  5
E8
100
AcDbEntity
  8
HS_Connection_Line
100
AcDbLine
370
-1
  6
HS_Hidden
 10
-5
 20
43
 30
0
 11
-25
 21
43
 31
0
  0
LINE
  5
E9
100
AcDbEntity
  8
HS_Connection_Line
100
AcDbLine
370
-1
  6
HS_Hidden
 10
-25
 20
43
 30
0
 11
-25
 21
34
 31
0
  0
LINE
  5
EA
100
AcDbEntity
  8
HS_Connection_Line
100
AcDbLine
370
-1
  6
HS_Hidden
 10
-5
 20
43
 30
0
 11
31
 21
43
 31
0
  0
LINE
  5
EB
100
AcDbEntity
  8
HS_Connection_Line
100
AcDbLine
370
-1
  6
HS_Hidden
 10
31
 20
43
 30
0
 11
31
 21
32
 31
0
  0
CIRCLE
  5
EC
100
AcDbEntity
  8
HS_Connection_Line
100
AcDbCircle
370
-1
  6
HS_Solid
 10
31
 20
32
 30
0
 40
0.8
  0
LWPOLYLINE
  5
ED
100
AcDbEntity
  8
HS_Connection_Line
100
AcDbPolyline
  6
HS_Solid
 38
0
 90
34
 70
0
 10
30.6335017221673
 20
32.7111111111111
 10
31.3664982778327
 20
32.7111111111111
 10
30.4971685111562
 20
32.6222222222222
 10
31.5028314888438
 20
32.6222222222222
 10
30.4037152060001
 20
32.5333333333333
 10
31.5962847939999
 20
32.5333333333333
 10
30.3348164645735
 20
32.4444444444445
 10
31.6651835354265
 20
32.4444444444445
 10
30.2833548668179
 20
32.3555555555556
 10
31.7166451331821
 20
32.3555555555556
 10
30.2457527667343
 20
32.2666666666667
 10
31.7542472332657
 20
32.2666666666667
 10
30.2200031655651
 20
32.1777777777778
 10
31.7799968344349
 20
32.1777777777778
 10
30.2049536080001
 20
32.0888888888889
 10
31.7950463919999
 20
32.0888888888889
 10
30.2
 20
32
 10
31.8
 20
32
 10
30.2049536080001
 20
31.9111111111111
 10
31.7950463919999
 20
31.9111111111111
 10
30.2200031655651
 20
31.8222222222222
 10
31.7799968344349
 20
31.8222222222222
 10
30.2457527667343
 20
31.7333333333333
 10
31.7542472332657
 20
31.7333333333333
 10
30.2833548668179
 20
31.6444444444444
 10
31.7166451331821
 20
31.6444444444444
 10
30.3348164645735
 20
31.5555555555556
 10
31.6651835354265
 20
31.5555555555556
 10
30.4037152060001
 20
31.4666666666667
 10
31.5962847939999
 20
31.4666666666667
 10
30.4971685111562
 20
31.3777777777778
 10
31.5028314888438
 20
31.3777777777778
 10
30.6335017221673
 20
31.2888888888889
 10
31.3664982778327
 20
31.2888888888889
  0
LINE
  5
EE
100
AcDbEntity
  8
HS_Connection_Line
100
AcDbLine
370
-1
  6
HS_Hidden
 10
31
 20
32
 30
0
 11
31
 21
18
 31
0
  0
LINE
  5
EF
100
AcDbEntity
  8
HS_Connection_Line
100
AcDbLine
370
-1
  6
HS_Hidden
 10
13
 20
32
 30
0
 11
31
 21
32
 31
0
  0
CIRCLE
  5
F0
100
AcDbEntity
  8
HS_Connection_Line
100
AcDbCircle
370
-1
  6
HS_Solid
 10
31
 20
9
 30
0
 40
0.8
  0
LWPOLYLINE
  5
F1
100
AcDbEntity
  8
HS_Connection_Line
100
AcDbPolyline
  6
HS_Solid
 38
0
 90
34
 70
0
 10
30.6335017221673
 20
9.71111111111111
 10
31.3664982778327
 20
9.71111111111111
 10
30.4971685111562
 20
9.62222222222222
 10
31.5028314888438
 20
9.62222222222222
 10
30.4037152060001
 20
9.53333333333333
 10
31.5962847939999
 20
9.53333333333333
 10
30.3348164645735
 20
9.44444444444444
 10
31.6651835354265
 20
9.44444444444444
 10
30.2833548668179
 20
9.35555555555556
 10
31.7166451331821
 20
9.35555555555556
 10
30.2457527667343
 20
9.26666666666667
 10
31.7542472332657
 20
9.26666666666667
 10
30.2200031655651
 20
9.17777777777778
 10
31.7799968344349
 20
9.17777777777778
 10
30.2049536080001
 20
9.08888888888889
 10
31.7950463919999
 20
9.08888888888889
 10
30.2
 20
9
 10
31.8
 20
9
 10
30.2049536080001
 20
8.91111111111111
 10
31.7950463919999
 20
8.91111111111111
 10
30.2200031655651
 20
8.82222222222222
 10
31.7799968344349
 20
8.82222222222222
 10
30.2457527667343
 20
8.73333333333333
 10
31.7542472332657
 20
8.73333333333333
 10
30.2833548668179
 20
8.64444444444444
 10
31.7166451331821
 20
8.64444444444444
 10
30.3348164645735
 20
8.55555555555556
 10
31.6651835354265
 20
8.55555555555556
 10
30.4037152060001
 20
8.46666666666667
 10
31.5962847939999
 20
8.46666666666667
 10
30.4971685111562
 20
8.37777777777778
 10
31.5028314888438
 20
8.37777777777778
 10
30.6335017221673
 20
8.28888888888889
 10
31.3664982778327
 20
8.28888888888889
  0
LINE
  5
F2
100
AcDbEntity
  8
HS_Connection_Line
100
AcDbLine
370
-1
  6
HS_Hidden
 10
31
 20
9
 30
0
 11
31
 21
-12
 31
0
  0
LINE
  5
F3
100
AcDbEntity
  8
HS_Connection_Line
100
AcDbLine
370
-1
  6
HS_Hidden
 10
15
 20
9
 30
0
 11
31
 21
9
 31
0
  0
CIRCLE
  5
F4
100
AcDbEntity
  8
HS_Connection_Line
100
AcDbCircle
370
-1
  6
HS_Solid
 10
31
 20
18
 30
0
 40
0.8
  0
LWPOLYLINE
  5
F5
100
AcDbEntity
  8
HS_Connection_Line
100
AcDbPolyline
  6
HS_Solid
 38
0
 90
34
 70
0
 10
30.6335017221673
 20
18.7111111111111
 10
31.3664982778327
 20
18.7111111111111
 10
30.4971685111562
 20
18.6222222222222
 10
31.5028314888438
 20
18.6222222222222
 10
30.4037152060001
 20
18.5333333333333
 10
31.5962847939999
 20
18.5333333333333
 10
30.3348164645735
 20
18.4444444444444
 10
31.6651835354265
 20
18.4444444444444
 10
30.2833548668179
 20
18.3555555555556
 10
31.7166451331821
 20
18.3555555555556
 10
30.2457527667343
 20
18.2666666666667
 10
31.7542472332657
 20
18.2666666666667
 10
30.2200031655651
 20
18.1777777777778
 10
31.7799968344349
 20
18.1777777777778
 10
30.2049536080001
 20
18.0888888888889
 10
31.7950463919999
 20
18.0888888888889
 10
30.2
 20
18
 10
31.8
 20
18
 10
30.2049536080001
 20
17.9111111111111
 10
31.7950463919999
 20
17.9111111111111
 10
30.2200031655651
 20
17.8222222222222
 10
31.7799968344349
 20
17.8222222222222
 10
30.2457527667343
 20
17.7333333333333
 10
31.7542472332657
 20
17.7333333333333
 10
30.2833548668179
 20
17.6444444444444
 10
31.7166451331821
 20
17.6444444444444
 10
30.3348164645735
 20
17.5555555555556
 10
31.6651835354265
 20
17.5555555555556
 10
30.4037152060001
 20
17.4666666666667
 10
31.5962847939999
 20
17.4666666666667
 10
30.4971685111562
 20
17.3777777777778
 10
31.5028314888438
 20
17.3777777777778
 10
30.6335017221673
 20
17.2888888888889
 10
31.3664982778327
 20
17.2888888888889
  0
LINE
  5
F6
100
AcDbEntity
  8
HS_Connection_Line
100
AcDbLine
370
-1
  6
HS_Hidden
 10
31
 20
18
 30
0
 11
31
 21
9
 31
0
  0
LINE
  5
F7
100
AcDbEntity
  8
HS_Connection_Line
100
AcDbLine
370
-1
  6
HS_Hidden
 10
-3
 20
13
 30
0
 11
-3
 21
18
 31
0
  0
LINE
  5
F8
100
AcDbEntity
  8
HS_Connection_Line
100
AcDbLine
370
-1
  6
HS_Hidden
 10
-3
 20
18
 30
0
 11
31
 21
18
 31
0
  0
ARC
  5
F9
100
AcDbEntity
  8
HS_Connection_Line
100
AcDbCircle
370
-1
  6
HS_Hidden
 10
-19
 20
34
 30
0
 40
1
100
AcDbArc
 50
270
 51
90
  0
LINE
  5
FA
100
AcDbEntity
  8
HS_Connection_Line
100
AcDbLine
370
-1
  6
HS_Hidden
 10
-19
 20
11
 30
0
 11
-19.0000009616506
 21
33
 31
0
  0
ARC
  5
FB
100
AcDbEntity
  8
HS_Connection_Line
100
AcDbCircle
370
-1
  6
HS_Hidden
 10
-19
 20
34
 30
0
 40
1
100
AcDbArc
 50
270
 51
90
  0
LINE
  5
FC
100
AcDbEntity
  8
HS_Connection_Line
100
AcDbLine
370
-1
  6
HS_Hidden
 10
-19.0000001748456
 20
35
 30
0
 11
-19
 21
39
 31
0
  0
LINE
  5
FD
100
AcDbEntity
  8
HS_Connection_Line
100
AcDbLine
370
-1
  6
HS_Hidden
 10
-19
 20
39
 30
0
 11
-9
 21
39
 31
0
  0
LINE
  5
FE
100
AcDbEntity
  8
HS_Connection_Line
100
AcDbLine
370
-1
  6
HS_Hidden
 10
-9
 20
39
 30
0
 11
-9
 21
36
 31
0
  0
CIRCLE
  5
FF
100
AcDbEntity
  8
HS_Connection_Line
100
AcDbCircle
370
-1
  6
HS_Solid
 10
-5
 20
0
 30
0
 40
0.8
  0
LWPOLYLINE
  5
100
100
AcDbEntity
  8
HS_Connection_Line
100
AcDbPolyline
  6
HS_Solid
 38
0
 90
34
 70
0
 10
-5.36649827783268
 20
0.711111111111111
 10
-4.63350172216732
 20
0.711111111111111
 10
-5.50283148884377
 20
0.622222222222222
 10
-4.49716851115623
 20
0.622222222222222
 10
-5.59628479399994
 20
0.533333333333333
 10
-4.40371520600006
 20
0.533333333333333
 10
-5.66518353542648
 20
0.444444444444444
 10
-4.33481646457352
 20
0.444444444444444
 10
-5.71664513318209
 20
0.355555555555556
 10
-4.28335486681791
 20
0.355555555555556
 10
-5.75424723326565
 20
0.266666666666667
 10
-4.24575276673435
 20
0.266666666666667
 10
-5.77999683443486
 20
0.177777777777778
 10
-4.22000316556514
 20
0.177777777777778
 10
-5.79504639199993
 20
0.0888888888888889
 10
-4.20495360800007
 20
0.0888888888888889
 10
-5.8
 20
0
 10
-4.2
 20
0
 10
-5.79504639199993
 20
-0.0888888888888889
 10
-4.20495360800007
 20
-0.0888888888888889
 10
-5.77999683443486
 20
-0.177777777777778
 10
-4.22000316556514
 20
-0.177777777777778
 10
-5.75424723326565
 20
-0.266666666666667
 10
-4.24575276673435
 20
-0.266666666666667
 10
-5.71664513318209
 20
-0.355555555555556
 10
-4.28335486681791
 20
-0.355555555555556
 10
-5.66518353542648
 20
-0.444444444444444
 10
-4.33481646457352
 20
-0.444444444444444
 10
-5.59628479399994
 20
-0.533333333333333
 10
-4.40371520600006
 20
-0.533333333333333
 10
-5.50283148884377
 20
-0.622222222222222
 10
-4.49716851115623
 20
-0.622222222222222
 10
-5.36649827783268
 20
-0.711111111111111
 10
-4.63350172216732
 20
-0.711111111111111
  0
LINE
  5
101
100
AcDbEntity
  8
HS_Connection_Line
100
AcDbLine
370
-1
  6
HS_Hidden
 10
-5
 20
0
 30
0
 11
-10
 21
0
 31
0
  0
LINE
  5
102
100
AcDbEntity
  8
HS_Connection_Line
100
AcDbLine
370
-1
  6
HS_Hidden
 10
-5
 20
0
 30
0
 11
-5
 21
-12
 31
0
  0
LINE
  5
103
100
AcDbEntity
  8
HS_Connection_Line
100
AcDbLine
370
-1
  6
HS_Hidden
 10
-5
 20
-12
 30
0
 11
8
 21
-12
 31
0
  0
LINE
  5
104
100
AcDbEntity
  8
HS_IBorder
100
AcDbLine
370
-1
 10
-35
 20
-7
 30
0
 11
-35
 21
-18
 31
0
  0
LINE
  5
105
100
AcDbEntity
  8
HS_IBorder
100
AcDbLine
370
-1
 10
-35
 20
-18
 30
0
 11
23
 21
-18
 31
0
  0
LINE
  5
106
100
AcDbEntity
  8
HS_IBorder
100
AcDbLine
370
-1
 10
23
 20
-18
 30
0
 11
23
 21
-38
 31
0
  0
LINE
  5
107
100
AcDbEntity
  8
HS_IBorder
100
AcDbLine
370
-1
 10
23
 20
-38
 30
0
 11
35
 21
-38
 31
0
  0
LINE
  5
108
100
AcDbEntity
  8
HS_IBorder
100
AcDbLine
370
-1
 10
37
 20
-38
 30
0
 11
41
 21
-38
 31
0
  0
LINE
  5
109
100
AcDbEntity
  8
HS_IBorder
100
AcDbLine
370
-1
 10
43
 20
-38
 30
0
 11
52
 21
-38
 31
0
  0
LINE
  5
10A
100
AcDbEntity
  8
HS_IBorder
100
AcDbLine
370
-1
 10
52
 20
-38
 30
0
 11
52
 21
-21
 31
0
  0
LINE
  5
10B
100
AcDbEntity
  8
HS_IBorder
100
AcDbLine
370
-1
 10
52
 20
-19
 30
0
 11
52
 21
-7
 31
0
  0
LINE
  5
10C
100
AcDbEntity
  8
HS_IBorder
100
AcDbLine
370
-1
 10
52
 20
-7
 30
0
 11
43
 21
-7
 31
0
  0
LINE
  5
10D
100
AcDbEntity
  8
HS_IBorder
100
AcDbLine
370
-1
 10
41
 20
-7
 30
0
 11
35
 21
-7
 31
0
  0
LINE
  5
10E
100
AcDbEntity
  8
HS_Connection_Line
100
AcDbLine
370
-1
 10
42
 20
-22
 30
0
 11
42
 21
-12
 31
0
  0
CIRCLE
  5
10F
100
AcDbEntity
  8
HS_Connection_Line
100
AcDbCircle
370
-1
  6
HS_Solid
 10
31
 20
-12
 30
0
 40
0.8
  0
LWPOLYLINE
  5
110
100
AcDbEntity
  8
HS_Connection_Line
100
AcDbPolyline
  6
HS_Solid
 38
0
 90
34
 70
0
 10
30.6335017221673
 20
-11.2888888888889
 10
31.3664982778327
 20
-11.2888888888889
 10
30.4971685111562
 20
-11.3777777777778
 10
31.5028314888438
 20
-11.3777777777778
 10
30.4037152060001
 20
-11.4666666666667
 10
31.5962847939999
 20
-11.4666666666667
 10
30.3348164645735
 20
-11.5555555555556
 10
31.6651835354265
 20
-11.5555555555556
 10
30.2833548668179
 20
-11.6444444444444
 10
31.7166451331821
 20
-11.6444444444444
 10
30.2457527667343
 20
-11.7333333333333
 10
31.7542472332657
 20
-11.7333333333333
 10
30.2200031655651
 20
-11.8222222222222
 10
31.7799968344349
 20
-11.8222222222222
 10
30.2049536080001
 20
-11.9111111111111
 10
31.7950463919999
 20
-11.9111111111111
 10
30.2
 20
-12
 10
31.8
 20
-12
 10
30.2049536080001
 20
-12.0888888888889
 10
31.7950463919999
 20
-12.0888888888889
 10
30.2200031655651
 20
-12.1777777777778
 10
31.7799968344349
 20
-12.1777777777778
 10
30.2457527667343
 20
-12.2666666666667
 10
31.7542472332657
 20
-12.2666666666667
 10
30.2833548668179
 20
-12.3555555555556
 10
31.7166451331821
 20
-12.3555555555556
 10
30.3348164645735
 20
-12.4444444444444
 10
31.6651835354265
 20
-12.4444444444444
 10
30.4037152060001
 20
-12.5333333333333
 10
31.5962847939999
 20
-12.5333333333333
 10
30.4971685111562
 20
-12.6222222222222
 10
31.5028314888438
 20
-12.6222222222222
 10
30.6335017221673
 20
-12.7111111111111
 10
31.3664982778327
 20
-12.7111111111111
  0
LINE
  5
111
100
AcDbEntity
  8
HS_Connection_Line
100
AcDbLine
370
-1
  6
HS_Hidden
 10
31
 20
-12
 30
0
 11
27.6
 21
-12
 31
0
  0
CIRCLE
  5
112
100
AcDbEntity
  8
HS_Connection_Line
100
AcDbCircle
370
-1
  6
HS_Solid
 10
-31
 20
34
 30
0
 40
0.8
  0
LWPOLYLINE
  5
113
100
AcDbEntity
  8
HS_Connection_Line
100
AcDbPolyline
  6
HS_Solid
 38
0
 90
34
 70
0
 10
-31.3664982778327
 20
34.7111111111111
 10
-30.6335017221673
 20
34.7111111111111
 10
-31.5028314888438
 20
34.6222222222222
 10
-30.4971685111562
 20
34.6222222222222
 10
-31.5962847939999
 20
34.5333333333333
 10
-30.4037152060001
 20
34.5333333333333
 10
-31.6651835354265
 20
34.4444444444445
 10
-30.3348164645735
 20
34.4444444444445
 10
-31.7166451331821
 20
34.3555555555556
 10
-30.2833548668179
 20
34.3555555555556
 10
-31.7542472332657
 20
34.2666666666667
 10
-30.2457527667343
 20
34.2666666666667
 10
-31.7799968344349
 20
34.1777777777778
 10
-30.2200031655651
 20
34.1777777777778
 10
-31.7950463919999
 20
34.0888888888889
 10
-30.2049536080001
 20
34.0888888888889
 10
-31.8
 20
34
 10
-30.2
 20
34
 10
-31.7950463919999
 20
33.9111111111111
 10
-30.2049536080001
 20
33.9111111111111
 10
-31.7799968344349
 20
33.8222222222222
 10
-30.2200031655651
 20
33.8222222222222
 10
-31.7542472332657
 20
33.7333333333333
 10
-30.2457527667343
 20
33.7333333333333
 10
-31.7166451331821
 20
33.6444444444444
 10
-30.2833548668179
 20
33.6444444444444
 10
-31.6651835354265
 20
33.5555555555556
 10
-30.3348164645735
 20
33.5555555555556
 10
-31.5962847939999
 20
33.4666666666667
 10
-30.4037152060001
 20
33.4666666666667
 10
-31.5028314888438
 20
33.3777777777778
 10
-30.4971685111562
 20
33.3777777777778
 10
-31.3664982778327
 20
33.2888888888889
 10
-30.6335017221673
 20
33.2888888888889
  0
LINE
  5
114
100
AcDbEntity
  8
HS_Connection_Line
100
AcDbLine
370
-1
  6
HS_Hidden
 10
-31
 20
34
 30
0
 11
-25
 21
34
 31
0
  0
LINE
  5
115
100
AcDbEntity
  8
HS_Connection_Line
100
AcDbLine
370
-1
  6
HS_Hidden
 10
-31
 20
34
 30
0
 11
-31
 21
46
 31
0
  0
CIRCLE
  5
116
100
AcDbEntity
  8
HS_Connection_Line
100
AcDbCircle
370
-1
  6
HS_Solid
 10
42
 20
-12
 30
0
 40
0.8
  0
LWPOLYLINE
  5
117
100
AcDbEntity
  8
HS_Connection_Line
100
AcDbPolyline
  6
HS_Solid
 38
0
 90
34
 70
0
 10
41.6335017221673
 20
-11.2888888888889
 10
42.3664982778327
 20
-11.2888888888889
 10
41.4971685111562
 20
-11.3777777777778
 10
42.5028314888438
 20
-11.3777777777778
 10
41.4037152060001
 20
-11.4666666666667
 10
42.5962847939999
 20
-11.4666666666667
 10
41.3348164645735
 20
-11.5555555555556
 10
42.6651835354265
 20
-11.5555555555556
 10
41.2833548668179
 20
-11.6444444444444
 10
42.7166451331821
 20
-11.6444444444444
 10
41.2457527667343
 20
-11.7333333333333
 10
42.7542472332657
 20
-11.7333333333333
 10
41.2200031655651
 20
-11.8222222222222
 10
42.7799968344349
 20
-11.8222222222222
 10
41.2049536080001
 20
-11.9111111111111
 10
42.7950463919999
 20
-11.9111111111111
 10
41.2
 20
-12
 10
42.8
 20
-12
 10
41.2049536080001
 20
-12.0888888888889
 10
42.7950463919999
 20
-12.0888888888889
 10
41.2200031655651
 20
-12.1777777777778
 10
42.7799968344349
 20
-12.1777777777778
 10
41.2457527667343
 20
-12.2666666666667
 10
42.7542472332657
 20
-12.2666666666667
 10
41.2833548668179
 20
-12.3555555555556
 10
42.7166451331821
 20
-12.3555555555556
 10
41.3348164645735
 20
-12.4444444444444
 10
42.6651835354265
 20
-12.4444444444444
 10
41.4037152060001
 20
-12.5333333333333
 10
42.5962847939999
 20
-12.5333333333333
 10
41.4971685111562
 20
-12.6222222222222
 10
42.5028314888438
 20
-12.6222222222222
 10
41.6335017221673
 20
-12.7111111111111
 10
42.3664982778327
 20
-12.7111111111111
  0
LINE
  5
118
100
AcDbEntity
  8
HS_Connection_Line
100
AcDbLine
370
-1
  6
HS_Hidden
 10
42
 20
-12
 30
0
 11
31
 21
-12
 31
0
  0
LINE
  5
119
100
AcDbEntity
  8
HS_Connection_Line
100
AcDbLine
370
-1
 10
42
 20
-12
 30
0
 11
42
 21
-8
 31
0
  0
LINE
  5
11A
100
AcDbEntity
  8
HS_Connection_Line
100
AcDbLine
370
-1
  6
HS_Hidden
 10
46.2
 20
-23.8
 30
0
 11
48
 21
-20
 31
0
  0
LINE
  5
11B
100
AcDbEntity
  8
HS_Connection_Line
100
AcDbLine
370
-1
  6
HS_Hidden
 10
48
 20
-20
 30
0
 11
51
 21
-20
 31
0
  0
LINE
  5
11C
100
AcDbEntity
  8
HS_Connection_Line
100
AcDbLine
370
-1
 10
42
 20
-34
 30
0
 11
42
 21
-37
 31
0
  0
LINE
  5
11D
100
AcDbEntity
  8
HS_Connection_Line
100
AcDbLine
370
-1
  6
HS_Hidden
 10
37.8
 20
-32.2
 30
0
 11
36
 21
-36
 31
0
  0
LINE
  5
11E
100
AcDbEntity
  8
HS_Connection_Line
100
AcDbLine
370
-1
  6
HS_Hidden
 10
36
 20
-36
 30
0
 11
36
 21
-37
 31
0
  0
LINE
  5
11F
100
AcDbEntity
  8
HS_Symbol
100
AcDbLine
370
-1
 10
-13
 20
4.6
 30
0
 11
-11.8997560380435
 21
8.86344535258129
 31
0
  0
SOLID
  5
120
100
AcDbEntity
  8
HS_Symbol
100
AcDbTrace
370
-1
  6
HS_Solid
 10
-12.4186542919181
 20
8.99735457938763
 30
0
 11
-11.380857784169
 21
8.72953612577494
 31
0
 12
-11.4
 22
10.8
 32
0
 13
-11.4
 23
10.8
 33
0
  0
LINE
  5
121
100
AcDbEntity
  8
HS_Symbol
100
AcDbLine
370
-1
 10
-15
 20
27.5
 30
0
 11
-13.8997560380435
 21
31.7634453525813
 31
0
  0
SOLID
  5
122
100
AcDbEntity
  8
HS_Symbol
100
AcDbTrace
370
-1
  6
HS_Solid
 10
-14.4186542919181
 20
31.8973545793876
 30
0
 11
-13.380857784169
 21
31.6295361257749
 31
0
 12
-13.4
 22
33.7
 32
0
 13
-13.4
 23
33.7
 33
0
  0
ENDSEC
  0
SECTION
  2
OBJECTS
  0
DICTIONARY
  5
123
100
AcDbDictionary
  3
ACAD_GROUP
350
124
  3
ACAD_MATERIAL
350
125
  3
ACAD_WIPEOUT_VARS
350
126
  3
ACAD_MLINESTYLE
350
127
  3
ACAD_LAYOUT
350
128
  0
DICTIONARY
  5
124
330
123
100
AcDbDictionary
  0
DICTIONARY
  5
125
330
123
100
AcDbDictionary
  0
WIPEOUTVARIABLES
  5
126
330
123
100
AcDbWipeoutVariables
 70
1
  0
DICTIONARY
  5
127
330
123
100
AcDbDictionary
  3
STANDARD
350
129
  0
MLINESTYLE
  5
129
100
AcDbMlineStyle
  2
STANDARD
 70
0
  3

 62
256
 51
90
 52
90
 71
2
 49
0.5
 62
256
  6
ByLayer
 49
-0.5
 62
256
  6
ByLayer
  0
DICTIONARY
  5
128
100
AcDbDictionary
281
1
  3
Model
350
13
  0
LAYOUT
  5
13
102
{ACAD_REACTORS
330
128
102
}
330
128
100
AcDbPlotSettings
  1

  2
none_device
  4

  6

 40
0
 41
0
 42
0
 43
0
 44
0
 45
0
 46
0
 47
0
 48
0
 49
0
 70
1712
 72
1
 73
0
 74
5
 75
16
 76
0
 77
0
 78
100
140
0
141
0
142
1
143
1
147
1
148
0
149
0
100
AcDbLayout
  1
Model
 70
1
 71
1
 10
-35
 20
-38
 11
52
 21
47
 12
0
 22
0
 32
0
 14
-35
 24
-38
 34
0
 15
52
 25
47
 35
0
146
0
 13
0
 23
0
 33
0
 16
1
 26
0
 36
0
 17
0
 27
1
 37
0
 76
0
330
63
  0
DICTIONARY
  5
12A
100
AcDbDictionary
280
1
  3
XINFO
360
12B
  0
XRECORD
  5
12B
102
{ACAD_REACTORS
330
12A
102
}
330
12A
100
AcDbXrecord
280
0
310
000000007D00E807
311
C32FD9D788DB29CB
  0
ENDSEC
  0
EOF
