999
The file was created in CADSoftTools software
999

  0
SECTION
  2
HEADER
  9
$ACADVER
  1
AC1015
  9
$DWGCODEPAGE
  3
ANSI_1252
  9
$CLAYER
  8
0
  9
$CELTYPE
  6
BYLAYER
  9
$CELTSCALE
 40
1
  9
$CELWEIGHT
370
-1
  9
$DIMALT
 70
0
  9
$DIMALTF
 40
1
  9
$DIMPOST
  1

  9
$DIMAPOST
  1

  9
$DIMSCALE
 40
1
  9
$DIMASZ
 40
0.18
  9
$DIMCLRD
 70
0
  9
$DIMCLRE
 70
0
  9
$DIMCLRT
 70
0
  9
$DIMEXE
 40
0.18
  9
$DIMEXO
 40
0.0625
  9
$DIMGAP
 40
0.0625
  9
$DIMLFAC
 40
1
  9
$DIMDEC
 70
4
  9
$DIMTAD
 70
0
  9
$DIMCEN
 40
0.09
  9
$DIMTIH
 70
1
  9
$DIMTIX
 70
0
  9
$DIMTOH
 70
1
  9
$DIMSE1
 70
0
  9
$DIMSE2
 70
0
  9
$DIMSD1
 70
0
  9
$DIMSD2
 70
0
  9
$DIMLWD
 70
-1
  9
$DIMLWE
 70
-1
  9
$DIMSAH
 70
0
  9
$DIMBLK
  1

  9
$DIMBLK1
  1

  9
$DIMBLK2
  1

  9
$DIMLDRBLK
  1

  9
$DIMSTYLE
  2
STANDARD
  9
$DIMTP
 40
0
  9
$DIMTM
 40
0
  9
$DIMTXT
 40
0.18
  9
$DIMLUNIT
 70
2
  9
$DIMDSEP
 70
46
  9
$DIMTXSTY
  7
STANDARD
  9
$TEXTSIZE
 40
0.18
  9
$TEXTSTYLE
  7
STANDARD
  9
$HANDSEED
  5
00000000000000C2
  9
$FILLETRAD
 40
0.5
  9
$INSUNITS
 70
4
  9
$LIMMIN
 10
-23.6625
 20
-36.375
  9
$LIMMAX
 10
15.9625
 20
37.375
  9
$FILLMODE
 70
1
  9
$LTSCALE
 40
1
  9
$MEASUREMENT
 70
0
  9
$ATTMODE
 70
1
  9
$PDMODE
 70
0
  9
$PDSIZE
 40
0
  9
$TILEMODE
 70
1
  9
$UCSORG
 10
0
 20
0
 30
0
  9
$UCSXDIR
 10
1
 20
0
 30
0
  9
$UCSYDIR
 10
0
 20
1
 30
0
  9
$INSBASE
 10
0
 20
0
 30
0
  9
$XCLIPFRAME
290
1
  9
$DIMASSOC
280
2
  9
$TDCREATE
 40
2460473.46572412
  9
$TDINDWG
 40
3.24074074074074E-7
  9
$TDUPDATE
 40
2460473.46572444
  0
ENDSEC
  0
SECTION
  2
CLASSES
  0
CLASS
  1
IMAGE
  2
AcDbRasterImage
  3
ISM
 90
2175
280
0
281
1
  0
CLASS
  1
IMAGEDEF
  2
AcDbRasterImageDef
  3
ISM
 90
0
280
0
281
0
  0
CLASS
  1
WIPEOUT
  2
AcDbWipeout
  3
"WipeOut"
 90
2175
280
0
281
1
  0
CLASS
  1
WIPEOUTVARIABLES
  2
AcDbWipeoutVariables
  3
"WipeOut"
 90
0
280
0
281
0
  0
CLASS
  1
MPOLYGON
  2
AcDbMPolygon
  3
"AcMPolygonObj15"
 90
3071
280
0
281
1
  0
ENDSEC
  0
SECTION
  2
TABLES
  0
TABLE
  2
APPID
  5
64
100
AcDbSymbolTable
  0
APPID
  5
65
100
AcDbSymbolTableRecord
100
AcDbRegAppTableRecord
  2
ACAD
 70
0
  0
APPID
  5
12
100
AcDbSymbolTableRecord
100
AcDbRegAppTableRecord
  2
CSTINVENTORY
 70
0
  0
APPID
  5
66
100
AcDbSymbolTableRecord
100
AcDbRegAppTableRecord
  2
AcDbAttr
 70
0
  0
APPID
  5
67
100
AcDbSymbolTableRecord
100
AcDbRegAppTableRecord
  2
PE_URL
 70
0
  0
ENDTAB
  0
TABLE
  2
BLOCK_RECORD
  5
68
100
AcDbSymbolTable
  0
BLOCK_RECORD
  5
63
100
AcDbSymbolTableRecord
100
AcDbBlockTableRecord
  2
*MODEL_SPACE
  0
BLOCK_RECORD
  5
69
100
AcDbSymbolTableRecord
100
AcDbBlockTableRecord
  2
*PAPER_SPACE
  0
BLOCK_RECORD
  5
10
100
AcDbSymbolTableRecord
100
AcDbBlockTableRecord
  2
_CLOSEDFILLED
  0
ENDTAB
  0
TABLE
  2
STYLE
  5
3
100
AcDbSymbolTable
  0
STYLE
  5
A
100
AcDbSymbolTableRecord
100
AcDbTextStyleTableRecord
  2
STANDARD
 70
0
 40
0
 41
1
 50
0
 71
0
 42
2.5
  3
txt
  4

  0
STYLE
  5
2E
100
AcDbSymbolTableRecord
100
AcDbTextStyleTableRecord
  2
HS_Text1
 70
0
 40
0
 41
1
 50
0
 71
0
 42
2.5
  3
arial.ttf
  4

1001
ACAD
1000
Arial
1071
0
  0
STYLE
  5
2F
100
AcDbSymbolTableRecord
100
AcDbTextStyleTableRecord
  2
HS_Text1__BD
 70
0
 40
0
 41
1
 50
0
 71
0
 42
2.5
  3
arialbd.ttf
  4

1001
ACAD
1000
Arial
1071
33554432
  0
STYLE
  5
30
100
AcDbSymbolTableRecord
100
AcDbTextStyleTableRecord
  2
HS_Text1__IT
 70
0
 40
0
 41
1
 50
0
 71
0
 42
2.5
  3
arialbi.ttf
  4

1001
ACAD
1000
Arial
1071
16777216
  0
STYLE
  5
31
100
AcDbSymbolTableRecord
100
AcDbTextStyleTableRecord
  2
HS_Text1__BI
 70
0
 40
0
 41
1
 50
0
 71
0
 42
2.5
  3
arialbi.ttf
  4

1001
ACAD
1000
Arial
1071
50331648
  0
STYLE
  5
32
100
AcDbSymbolTableRecord
100
AcDbTextStyleTableRecord
  2
TextStyle_Attribute
 70
0
 40
0
 41
1
 50
0
 71
0
 42
2.5
  3
arial.ttf
  4

1001
ACAD
1000
Arial
1071
0
  0
STYLE
  5
33
100
AcDbSymbolTableRecord
100
AcDbTextStyleTableRecord
  2
TextStyle_Attribute__BD
 70
0
 40
0
 41
1
 50
0
 71
0
 42
2.5
  3
arialbd.ttf
  4

1001
ACAD
1000
Arial
1071
33554432
  0
STYLE
  5
34
100
AcDbSymbolTableRecord
100
AcDbTextStyleTableRecord
  2
TextStyle_Attribute__IT
 70
0
 40
0
 41
1
 50
0
 71
0
 42
2.5
  3
arialbi.ttf
  4

1001
ACAD
1000
Arial
1071
16777216
  0
STYLE
  5
35
100
AcDbSymbolTableRecord
100
AcDbTextStyleTableRecord
  2
TextStyle_Attribute__BI
 70
0
 40
0
 41
1
 50
0
 71
0
 42
2.5
  3
arialbi.ttf
  4

1001
ACAD
1000
Arial
1071
50331648
  0
STYLE
  5
36
100
AcDbSymbolTableRecord
100
AcDbTextStyleTableRecord
  2
TextStyle_BOM
 70
0
 40
0
 41
1
 50
0
 71
0
 42
2.5
  3
ARIALN.TTF
  4

1001
ACAD
1000
Arial Narrow
1071
0
  0
STYLE
  5
37
100
AcDbSymbolTableRecord
100
AcDbTextStyleTableRecord
  2
TextStyle_BOM__BD
 70
0
 40
0
 41
1
 50
0
 71
0
 42
2.5
  3
ARIALNB.TTF
  4

1001
ACAD
1000
Arial Narrow
1071
33554432
  0
STYLE
  5
38
100
AcDbSymbolTableRecord
100
AcDbTextStyleTableRecord
  2
TextStyle_BOM__IT
 70
0
 40
0
 41
1
 50
0
 71
0
 42
2.5
  3
ARIALNBI.TTF
  4

1001
ACAD
1000
Arial Narrow
1071
16777216
  0
STYLE
  5
39
100
AcDbSymbolTableRecord
100
AcDbTextStyleTableRecord
  2
TextStyle_BOM__BI
 70
0
 40
0
 41
1
 50
0
 71
0
 42
2.5
  3
ARIALNBI.TTF
  4

1001
ACAD
1000
Arial Narrow
1071
50331648
  0
STYLE
  5
3A
100
AcDbSymbolTableRecord
100
AcDbTextStyleTableRecord
  2
TextStyle_ConnectionLineFlow
 70
0
 40
0
 41
1
 50
0
 71
0
 42
2.5
  3
arial.ttf
  4

1001
ACAD
1000
Arial
1071
0
  0
STYLE
  5
3B
100
AcDbSymbolTableRecord
100
AcDbTextStyleTableRecord
  2
TextStyle_ConnectionLineFlow__BD
 70
0
 40
0
 41
1
 50
0
 71
0
 42
2.5
  3
arialbd.ttf
  4

1001
ACAD
1000
Arial
1071
33554432
  0
STYLE
  5
3C
100
AcDbSymbolTableRecord
100
AcDbTextStyleTableRecord
  2
TextStyle_ConnectionLineFlow__IT
 70
0
 40
0
 41
1
 50
0
 71
0
 42
2.5
  3
arialbi.ttf
  4

1001
ACAD
1000
Arial
1071
16777216
  0
STYLE
  5
3D
100
AcDbSymbolTableRecord
100
AcDbTextStyleTableRecord
  2
TextStyle_ConnectionLineFlow__BI
 70
0
 40
0
 41
1
 50
0
 71
0
 42
2.5
  3
arialbi.ttf
  4

1001
ACAD
1000
Arial
1071
50331648
  0
STYLE
  5
3E
100
AcDbSymbolTableRecord
100
AcDbTextStyleTableRecord
  2
TextStyle_ConnectionLineSize
 70
0
 40
0
 41
1
 50
0
 71
0
 42
2.5
  3
arial.ttf
  4

1001
ACAD
1000
Arial
1071
0
  0
STYLE
  5
3F
100
AcDbSymbolTableRecord
100
AcDbTextStyleTableRecord
  2
TextStyle_ConnectionLineSize__BD
 70
0
 40
0
 41
1
 50
0
 71
0
 42
2.5
  3
arialbd.ttf
  4

1001
ACAD
1000
Arial
1071
33554432
  0
STYLE
  5
40
100
AcDbSymbolTableRecord
100
AcDbTextStyleTableRecord
  2
TextStyle_ConnectionLineSize__IT
 70
0
 40
0
 41
1
 50
0
 71
0
 42
2.5
  3
arialbi.ttf
  4

1001
ACAD
1000
Arial
1071
16777216
  0
STYLE
  5
41
100
AcDbSymbolTableRecord
100
AcDbTextStyleTableRecord
  2
TextStyle_ConnectionLineSize__BI
 70
0
 40
0
 41
1
 50
0
 71
0
 42
2.5
  3
arialbi.ttf
  4

1001
ACAD
1000
Arial
1071
50331648
  0
STYLE
  5
42
100
AcDbSymbolTableRecord
100
AcDbTextStyleTableRecord
  2
TextStyle_ConnectionLineVelocity
 70
0
 40
0
 41
1
 50
0
 71
0
 42
2.5
  3
arial.ttf
  4

1001
ACAD
1000
Arial
1071
0
  0
STYLE
  5
43
100
AcDbSymbolTableRecord
100
AcDbTextStyleTableRecord
  2
TextStyle_ConnectionLineVelocity__BD
 70
0
 40
0
 41
1
 50
0
 71
0
 42
2.5
  3
arialbd.ttf
  4

1001
ACAD
1000
Arial
1071
33554432
  0
STYLE
  5
44
100
AcDbSymbolTableRecord
100
AcDbTextStyleTableRecord
  2
TextStyle_ConnectionLineVelocity__IT
 70
0
 40
0
 41
1
 50
0
 71
0
 42
2.5
  3
arialbi.ttf
  4

1001
ACAD
1000
Arial
1071
16777216
  0
STYLE
  5
45
100
AcDbSymbolTableRecord
100
AcDbTextStyleTableRecord
  2
TextStyle_ConnectionLineVelocity__BI
 70
0
 40
0
 41
1
 50
0
 71
0
 42
2.5
  3
arialbi.ttf
  4

1001
ACAD
1000
Arial
1071
50331648
  0
STYLE
  5
46
100
AcDbSymbolTableRecord
100
AcDbTextStyleTableRecord
  2
TextStyle_HoseType
 70
0
 40
0
 41
1
 50
0
 71
0
 42
2.5
  3
arial.ttf
  4

1001
ACAD
1000
Arial
1071
0
  0
STYLE
  5
47
100
AcDbSymbolTableRecord
100
AcDbTextStyleTableRecord
  2
TextStyle_HoseType__BD
 70
0
 40
0
 41
1
 50
0
 71
0
 42
2.5
  3
arialbd.ttf
  4

1001
ACAD
1000
Arial
1071
33554432
  0
STYLE
  5
48
100
AcDbSymbolTableRecord
100
AcDbTextStyleTableRecord
  2
TextStyle_HoseType__IT
 70
0
 40
0
 41
1
 50
0
 71
0
 42
2.5
  3
arialbi.ttf
  4

1001
ACAD
1000
Arial
1071
16777216
  0
STYLE
  5
49
100
AcDbSymbolTableRecord
100
AcDbTextStyleTableRecord
  2
TextStyle_HoseType__BI
 70
0
 40
0
 41
1
 50
0
 71
0
 42
2.5
  3
arialbi.ttf
  4

1001
ACAD
1000
Arial
1071
50331648
  0
STYLE
  5
4A
100
AcDbSymbolTableRecord
100
AcDbTextStyleTableRecord
  2
TextStyle_IPort
 70
0
 40
0
 41
1
 50
0
 71
0
 42
2.5
  3
arial.ttf
  4

1001
ACAD
1000
Arial
1071
0
  0
STYLE
  5
4B
100
AcDbSymbolTableRecord
100
AcDbTextStyleTableRecord
  2
TextStyle_IPort__BD
 70
0
 40
0
 41
1
 50
0
 71
0
 42
2.5
  3
arialbd.ttf
  4

1001
ACAD
1000
Arial
1071
33554432
  0
STYLE
  5
4C
100
AcDbSymbolTableRecord
100
AcDbTextStyleTableRecord
  2
TextStyle_IPort__IT
 70
0
 40
0
 41
1
 50
0
 71
0
 42
2.5
  3
arialbi.ttf
  4

1001
ACAD
1000
Arial
1071
16777216
  0
STYLE
  5
4D
100
AcDbSymbolTableRecord
100
AcDbTextStyleTableRecord
  2
TextStyle_IPort__BI
 70
0
 40
0
 41
1
 50
0
 71
0
 42
2.5
  3
arialbi.ttf
  4

1001
ACAD
1000
Arial
1071
50331648
  0
STYLE
  5
4E
100
AcDbSymbolTableRecord
100
AcDbTextStyleTableRecord
  2
TextStyle_ItemNumber
 70
0
 40
0
 41
1
 50
0
 71
0
 42
2.5
  3
arial.ttf
  4

1001
ACAD
1000
Arial
1071
0
  0
STYLE
  5
4F
100
AcDbSymbolTableRecord
100
AcDbTextStyleTableRecord
  2
TextStyle_ItemNumber__BD
 70
0
 40
0
 41
1
 50
0
 71
0
 42
2.5
  3
arialbd.ttf
  4

1001
ACAD
1000
Arial
1071
33554432
  0
STYLE
  5
50
100
AcDbSymbolTableRecord
100
AcDbTextStyleTableRecord
  2
TextStyle_ItemNumber__IT
 70
0
 40
0
 41
1
 50
0
 71
0
 42
2.5
  3
arialbi.ttf
  4

1001
ACAD
1000
Arial
1071
16777216
  0
STYLE
  5
51
100
AcDbSymbolTableRecord
100
AcDbTextStyleTableRecord
  2
TextStyle_ItemNumber__BI
 70
0
 40
0
 41
1
 50
0
 71
0
 42
2.5
  3
arialbi.ttf
  4

1001
ACAD
1000
Arial
1071
50331648
  0
STYLE
  5
52
100
AcDbSymbolTableRecord
100
AcDbTextStyleTableRecord
  2
TextStyle_Port
 70
0
 40
0
 41
1
 50
0
 71
0
 42
2.5
  3
arial.ttf
  4

1001
ACAD
1000
Arial
1071
0
  0
STYLE
  5
53
100
AcDbSymbolTableRecord
100
AcDbTextStyleTableRecord
  2
TextStyle_Port__BD
 70
0
 40
0
 41
1
 50
0
 71
0
 42
2.5
  3
arialbd.ttf
  4

1001
ACAD
1000
Arial
1071
33554432
  0
STYLE
  5
54
100
AcDbSymbolTableRecord
100
AcDbTextStyleTableRecord
  2
TextStyle_Port__IT
 70
0
 40
0
 41
1
 50
0
 71
0
 42
2.5
  3
arialbi.ttf
  4

1001
ACAD
1000
Arial
1071
16777216
  0
STYLE
  5
55
100
AcDbSymbolTableRecord
100
AcDbTextStyleTableRecord
  2
TextStyle_Port__BI
 70
0
 40
0
 41
1
 50
0
 71
0
 42
2.5
  3
arialbi.ttf
  4

1001
ACAD
1000
Arial
1071
50331648
  0
STYLE
  5
56
100
AcDbSymbolTableRecord
100
AcDbTextStyleTableRecord
  2
TextStyle_Revisions
 70
0
 40
0
 41
1
 50
0
 71
0
 42
2.5
  3
arial.ttf
  4

1001
ACAD
1000
Arial
1071
0
  0
STYLE
  5
57
100
AcDbSymbolTableRecord
100
AcDbTextStyleTableRecord
  2
TextStyle_Revisions__BD
 70
0
 40
0
 41
1
 50
0
 71
0
 42
2.5
  3
arialbd.ttf
  4

1001
ACAD
1000
Arial
1071
33554432
  0
STYLE
  5
58
100
AcDbSymbolTableRecord
100
AcDbTextStyleTableRecord
  2
TextStyle_Revisions__IT
 70
0
 40
0
 41
1
 50
0
 71
0
 42
2.5
  3
arialbi.ttf
  4

1001
ACAD
1000
Arial
1071
16777216
  0
STYLE
  5
59
100
AcDbSymbolTableRecord
100
AcDbTextStyleTableRecord
  2
TextStyle_Revisions__BI
 70
0
 40
0
 41
1
 50
0
 71
0
 42
2.5
  3
arialbi.ttf
  4

1001
ACAD
1000
Arial
1071
50331648
  0
STYLE
  5
5A
100
AcDbSymbolTableRecord
100
AcDbTextStyleTableRecord
  2
TextStyle_RevTriangle
 70
0
 40
0
 41
1
 50
0
 71
0
 42
2.5
  3
arial.ttf
  4

1001
ACAD
1000
Arial
1071
0
  0
STYLE
  5
5B
100
AcDbSymbolTableRecord
100
AcDbTextStyleTableRecord
  2
TextStyle_RevTriangle__BD
 70
0
 40
0
 41
1
 50
0
 71
0
 42
2.5
  3
arialbd.ttf
  4

1001
ACAD
1000
Arial
1071
33554432
  0
STYLE
  5
5C
100
AcDbSymbolTableRecord
100
AcDbTextStyleTableRecord
  2
TextStyle_RevTriangle__IT
 70
0
 40
0
 41
1
 50
0
 71
0
 42
2.5
  3
arialbi.ttf
  4

1001
ACAD
1000
Arial
1071
16777216
  0
STYLE
  5
5D
100
AcDbSymbolTableRecord
100
AcDbTextStyleTableRecord
  2
TextStyle_RevTriangle__BI
 70
0
 40
0
 41
1
 50
0
 71
0
 42
2.5
  3
arialbi.ttf
  4

1001
ACAD
1000
Arial
1071
50331648
  0
STYLE
  5
5E
100
AcDbSymbolTableRecord
100
AcDbTextStyleTableRecord
  2
TextStyle_Text
 70
0
 40
0
 41
1
 50
0
 71
0
 42
2.5
  3
arial.ttf
  4

1001
ACAD
1000
Arial
1071
0
  0
STYLE
  5
5F
100
AcDbSymbolTableRecord
100
AcDbTextStyleTableRecord
  2
TextStyle_Text__BD
 70
0
 40
0
 41
1
 50
0
 71
0
 42
2.5
  3
arialbd.ttf
  4

1001
ACAD
1000
Arial
1071
33554432
  0
STYLE
  5
60
100
AcDbSymbolTableRecord
100
AcDbTextStyleTableRecord
  2
TextStyle_Text__IT
 70
0
 40
0
 41
1
 50
0
 71
0
 42
2.5
  3
arialbi.ttf
  4

1001
ACAD
1000
Arial
1071
16777216
  0
STYLE
  5
61
100
AcDbSymbolTableRecord
100
AcDbTextStyleTableRecord
  2
TextStyle_Text__BI
 70
0
 40
0
 41
1
 50
0
 71
0
 42
2.5
  3
arialbi.ttf
  4

1001
ACAD
1000
Arial
1071
50331648
  0
ENDTAB
  0
TABLE
  2
LTYPE
  5
1
100
AcDbSymbolTable
  0
LTYPE
  5
9
100
AcDbSymbolTableRecord
100
AcDbLinetypeTableRecord
  2
CONTINUOUS
 70
0
  3

 72
65
 73
0
 40
0
  0
LTYPE
  5
7
100
AcDbSymbolTableRecord
100
AcDbLinetypeTableRecord
  2
BYLAYER
 70
0
  3

 72
65
 73
0
 40
0
  0
LTYPE
  5
8
100
AcDbSymbolTableRecord
100
AcDbLinetypeTableRecord
  2
BYBLOCK
 70
0
  3

 72
65
 73
0
 40
0
  0
LTYPE
  5
14
100
AcDbSymbolTableRecord
100
AcDbLinetypeTableRecord
  2
HS_Default
 70
0
  3

 72
65
 73
0
 40
0
  0
LTYPE
  5
15
100
AcDbSymbolTableRecord
100
AcDbLinetypeTableRecord
  2
HS_Solid
 70
0
  3

 72
65
 73
0
 40
0
  0
LTYPE
  5
16
100
AcDbSymbolTableRecord
100
AcDbLinetypeTableRecord
  2
HS_Hidden
 70
0
  3
_ 
 72
65
 73
2
 40
2.3
 49
1.5
 74
0
 49
-0.8
 74
0
  0
LTYPE
  5
17
100
AcDbSymbolTableRecord
100
AcDbLinetypeTableRecord
  2
HS_Dashed
 70
0
  3
_ 
 72
65
 73
2
 40
3.3
 49
2.5
 74
0
 49
-0.8
 74
0
  0
LTYPE
  5
18
100
AcDbSymbolTableRecord
100
AcDbLinetypeTableRecord
  2
HS_Border
 70
0
  3
_ _ 
 72
65
 73
4
 40
10
 49
6.5
 74
0
 49
-1
 74
0
 49
1.5
 74
0
 49
-1
 74
0
  0
ENDTAB
  0
TABLE
  2
LAYER
  5
2
100
AcDbSymbolTable
  0
LAYER
  5
E
100
AcDbSymbolTableRecord
100
AcDbLayerTableRecord
  2
0
 70
0
 62
7
  6
CONTINUOUS
290
1
370
-3
390
0
  0
LAYER
  5
19
100
AcDbSymbolTableRecord
100
AcDbLayerTableRecord
  2
HS_Symbol
 70
0
 62
7
  6
HS_Solid
290
1
370
35
390
0
  0
LAYER
  5
1A
100
AcDbSymbolTableRecord
100
AcDbLayerTableRecord
  2
HS_Solenoid
 70
0
 62
7
  6
HS_Solid
290
1
370
35
390
0
  0
LAYER
  5
1B
100
AcDbSymbolTableRecord
100
AcDbLayerTableRecord
  2
HS_Orifice
 70
0
 62
7
  6
HS_Solid
290
1
370
35
390
0
  0
LAYER
  5
1C
100
AcDbSymbolTableRecord
100
AcDbLayerTableRecord
  2
HS_Line
 70
0
 62
7
  6
HS_Solid
290
1
370
18
390
0
  0
LAYER
  5
1D
100
AcDbSymbolTableRecord
100
AcDbLayerTableRecord
  2
HS_Pilot
 70
0
 62
7
  6
HS_Dashed
290
1
370
18
390
0
  0
LAYER
  5
1E
100
AcDbSymbolTableRecord
100
AcDbLayerTableRecord
  2
HS_Drain
 70
0
 62
7
  6
HS_Hidden
290
1
370
18
390
0
  0
LAYER
  5
1F
100
AcDbSymbolTableRecord
100
AcDbLayerTableRecord
  2
HS_Border
 70
0
 62
7
  6
HS_Border
290
1
370
25
390
0
  0
LAYER
  5
20
100
AcDbSymbolTableRecord
100
AcDbLayerTableRecord
  2
HS_IBorder
 70
0
 62
7
  6
HS_Border
290
1
370
35
390
0
  0
LAYER
  5
21
100
AcDbSymbolTableRecord
100
AcDbLayerTableRecord
  2
HS_Text
 70
0
 62
7
  6
HS_Solid
290
1
390
0
  0
LAYER
  5
22
100
AcDbSymbolTableRecord
100
AcDbLayerTableRecord
  2
HS_Attribute
 70
0
 62
7
  6
HS_Solid
290
1
390
0
  0
LAYER
  5
23
100
AcDbSymbolTableRecord
100
AcDbLayerTableRecord
  2
HS_ItemNumber
 70
0
 62
7
  6
HS_Solid
290
1
390
0
  0
LAYER
  5
24
100
AcDbSymbolTableRecord
100
AcDbLayerTableRecord
  2
HS_Leader
 70
0
 62
7
  6
HS_Solid
290
1
390
0
  0
LAYER
  5
25
100
AcDbSymbolTableRecord
100
AcDbLayerTableRecord
  2
HS_Port
 70
0
 62
7
  6
HS_Solid
290
1
370
35
390
0
  0
LAYER
  5
26
100
AcDbSymbolTableRecord
100
AcDbLayerTableRecord
  2
HS_Connection_Line
 70
0
 62
7
  6
HS_Solid
290
1
370
35
390
0
  0
LAYER
  5
27
100
AcDbSymbolTableRecord
100
AcDbLayerTableRecord
  2
HS_Hose
 70
0
 62
7
  6
HS_Solid
290
1
370
35
390
0
  0
LAYER
  5
28
100
AcDbSymbolTableRecord
100
AcDbLayerTableRecord
  2
HS_Electric
 70
0
 62
7
  6
HS_Solid
290
1
370
35
390
0
  0
LAYER
  5
29
100
AcDbSymbolTableRecord
100
AcDbLayerTableRecord
  2
Pressure
 70
0
 62
30
  6
HS_Solid
290
1
370
20
390
0
  0
LAYER
  5
2A
100
AcDbSymbolTableRecord
100
AcDbLayerTableRecord
  2
Reservoir
 70
0
 62
140
  6
HS_Solid
290
1
370
20
390
0
  0
LAYER
  5
2B
100
AcDbSymbolTableRecord
100
AcDbLayerTableRecord
  2
Control
 70
0
 62
30
  6
HS_Dashed
290
1
370
20
390
0
  0
LAYER
  5
2C
100
AcDbSymbolTableRecord
100
AcDbLayerTableRecord
  2
Drain
 70
0
 62
140
  6
HS_Hidden
290
1
370
20
390
0
  0
LAYER
  5
2D
100
AcDbSymbolTableRecord
100
AcDbLayerTableRecord
  2
Working
 70
0
 62
70
  6
HS_Solid
290
1
370
20
390
0
  0
ENDTAB
  0
TABLE
  2
VPORT
  5
6A
100
AcDbSymbolTable
  0
VPORT
  5
6C
100
AcDbSymbolTableRecord
100
AcDbViewportTableRecord
  2
*ACTIVE
 70
0
 10
0
 20
0
 11
1
 21
1
 12
-3.85
 22
0.5
 32
0
 13
0
 23
0
 14
1
 24
1
 15
1
 25
1
 16
0
 26
0
 36
1
 17
0
 27
0
 37
0
 40
59
 41
0.53728813559322
 42
50
 43
0
 44
0
 50
0
 51
0
 71
0
 72
100
 73
1
 74
1
 75
0
 76
0
 77
0
 78
0
  0
ENDTAB
  0
TABLE
  2
VIEW
  5
6D
100
AcDbSymbolTable
  0
ENDTAB
  0
TABLE
  2
UCS
  5
6E
100
AcDbSymbolTable
  0
ENDTAB
  0
TABLE
  2
DIMSTYLE
  5
4
100
AcDbSymbolTable
 70
1
100
AcDbDimStyleTable
 71
0
  0
DIMSTYLE
105
B
100
AcDbSymbolTableRecord
100
AcDbDimStyleTableRecord
  2
STANDARD
 70
0
  3

 40
1
 41
0.18
 42
0.0625
 44
0.18
 47
0
 48
0
 73
1
 74
1
 75
0
 76
0
 77
0
140
0.18
141
0.09
144
1
147
0.0625
173
0
174
0
176
0
177
0
178
0
277
2
278
46
281
0
282
0
271
4
340
A
371
-1
372
-1
  0
ENDTAB
  0
ENDSEC
  0
SECTION
  2
BLOCKS
  0
BLOCK
  5
6F
100
AcDbEntity
  8
0
100
AcDbBlockBegin
  2
*MODEL_SPACE
 70
0
 10
0
 20
0
  0
ENDBLK
  5
70
100
AcDbEntity
  8
0
100
AcDbBlockEnd
  0
BLOCK
  5
71
100
AcDbEntity
  8
0
100
AcDbBlockBegin
  2
*PAPER_SPACE
 70
0
 10
0
 20
0
  0
ENDBLK
  5
72
100
AcDbEntity
  8
0
100
AcDbBlockEnd
  0
BLOCK
  5
F
100
AcDbEntity
  8
0
100
AcDbBlockBegin
  2
_CLOSEDFILLED
 70
0
 10
0
 20
0
 30
0
  3
_CLOSEDFILLED
  1

  0
SOLID
  5
C
100
AcDbEntity
  8
0
100
AcDbTrace
370
-2
 62
0
 10
-1
 20
0.166666666666667
 30
0
 11
0
 21
0
 31
0
 12
-1
 22
0.166666666666667
 32
0
 13
-1
 23
-0.166666666666667
 33
0
  0
LINE
  5
D
100
AcDbEntity
  8
0
100
AcDbLine
370
-2
 62
0
 10
-1
 20
0
 30
0
 11
-2
 21
0
 31
0
  0
ENDBLK
  5
73
100
AcDbEntity
  8
0
100
AcDbBlockEnd
  0
ENDSEC
  0
SECTION
  2
ENTITIES
  0
SOLID
  5
74
100
AcDbEntity
  8
HS_Symbol
100
AcDbTrace
370
-1
  6
HS_Solid
 10
-3.00000013113417
 20
-2
 30
0
 11
-4.49999665046957
 21
-5.00000013113388
 31
0
 12
-1.50000334953043
 22
-5
 32
0
 13
-1.50000334953043
 23
-5
 33
0
  0
CIRCLE
  5
75
100
AcDbEntity
  8
HS_Symbol
100
AcDbCircle
370
-1
 10
-3
 20
-8
 30
0
 40
6
  0
CIRCLE
  5
76
100
AcDbEntity
  8
HS_Symbol
100
AcDbCircle
370
-1
 10
-16
 20
-3
 30
0
 40
1
  0
LINE
  5
77
100
AcDbEntity
  8
HS_Symbol
100
AcDbLine
370
-1
 10
-9
 20
-9
 30
0
 11
-14.3
 21
-9
 31
0
  0
LINE
  5
78
100
AcDbEntity
  8
HS_Symbol
100
AcDbLine
370
-1
 10
-14
 20
-10
 30
0
 11
-15.7
 21
-3.9
 31
0
  0
LINE
  5
79
100
AcDbEntity
  8
HS_Symbol
100
AcDbLine
370
-1
 10
-14.8
 20
-7
 30
0
 11
-9
 21
-7
 31
0
  0
CIRCLE
  5
7A
100
AcDbEntity
  8
HS_Symbol
100
AcDbCircle
370
-1
 10
-3.00000005828185
 20
-19.3333333333333
 30
0
 40
1.33333333333333
  0
LINE
  5
7B
100
AcDbEntity
  8
HS_Symbol
100
AcDbLine
370
-1
 10
-3.00000014070484
 20
-21.218951457709
 30
0
 11
-3.00000017484556
 21
-22
 31
0
  0
LWPOLYLINE
  5
7C
100
AcDbEntity
  8
HS_Symbol
100
AcDbPolyline
370
-1
 38
0
 90
3
 70
0
 10
-0.333333357474472
 20
-18.552284907606
 10
-3.00000014070484
 20
-21.218951457709
 10
-5.6666666908078
 20
-18.5522846744786
  0
LWPOLYLINE
  5
7D
100
AcDbEntity
  8
HS_Symbol
100
AcDbPolyline
370
-1
 38
0
 90
8
 70
0
 10
-3
 20
-18
 10
-4
 20
-17.75
 10
-2
 20
-17.25
 10
-4
 20
-16.75
 10
-2
 20
-16.25
 10
-4
 20
-15.75
 10
-2
 20
-15.25
 10
-3
 20
-15
  0
LINE
  5
7E
100
AcDbEntity
  8
HS_Symbol
100
AcDbLine
370
-1
 10
-3
 20
-18
 30
0
 11
-3
 21
-14
 31
0
  0
LINE
  5
7F
100
AcDbEntity
  8
HS_Symbol
100
AcDbLine
370
-1
 10
-3
 20
5
 30
0
 11
-3
 21
-2
 31
0
  0
LINE
  5
80
100
AcDbEntity
  8
HS_Symbol
100
AcDbLine
370
-1
 10
-3
 20
-22
 30
0
 11
-3
 21
-22.8
 31
0
  0
LINE
  5
81
100
AcDbEntity
  8
HS_Symbol
100
AcDbLine
370
-1
 10
-5.2
 20
-25
 30
0
 11
-3
 21
-22.8
 31
0
  0
LINE
  5
82
100
AcDbEntity
  8
HS_Symbol
100
AcDbLine
370
-1
 10
-3
 20
-22.8
 30
0
 11
-0.8
 21
-25
 31
0
  0
LINE
  5
83
100
AcDbEntity
  8
HS_Symbol
100
AcDbLine
370
-1
 10
-0.8
 20
-25
 30
0
 11
-3
 21
-27.2
 31
0
  0
LINE
  5
84
100
AcDbEntity
  8
HS_Symbol
100
AcDbLine
370
-1
 10
-3
 20
-27.2
 30
0
 11
-5.2
 21
-25
 31
0
  0
LINE
  5
85
100
AcDbEntity
  8
HS_Symbol
100
AcDbLine
370
-1
  6
HS_Hidden
 10
-5.2
 20
-25
 30
0
 11
-0.8
 21
-25
 31
0
  0
LINE
  5
86
100
AcDbEntity
  8
HS_Symbol
100
AcDbLine
370
-1
 10
-3
 20
-27.2
 30
0
 11
-3
 21
-29
 31
0
  0
LWPOLYLINE
  5
87
100
AcDbEntity
  8
HS_Symbol
100
AcDbPolyline
370
-1
 38
0
 90
4
 70
1
 10
-13
 20
13
 10
11
 20
13
 10
11
 20
5
 10
-13
 20
5
  0
LINE
  5
88
100
AcDbEntity
  8
HS_Symbol
100
AcDbLine
370
-1
 10
-5
 20
13
 30
0
 11
-5
 21
5
 31
0
  0
LINE
  5
89
100
AcDbEntity
  8
HS_Symbol
100
AcDbLine
370
-1
 10
3
 20
13
 30
0
 11
3
 21
5
 31
0
  0
LINE
  5
8A
100
AcDbEntity
  8
HS_Symbol
100
AcDbLine
370
-1
 10
-11
 20
13
 30
0
 11
-7.89442719099991
 21
6.78885438199983
 31
0
  0
SOLID
  5
8B
100
AcDbEntity
  8
HS_Symbol
100
AcDbTrace
370
-1
  6
HS_Solid
 10
-7.41510510396619
 20
7.0285154255167
 30
0
 11
-8.37374927803365
 21
6.54919333848297
 31
0
 12
-7
 22
5
 32
0
 13
-7
 23
5
 33
0
  0
LINE
  5
8C
100
AcDbEntity
  8
HS_Symbol
100
AcDbLine
370
-1
 10
-11
 20
5
 30
0
 11
-7.89442719099991
 21
11.2111456180002
 31
0
  0
SOLID
  5
8D
100
AcDbEntity
  8
HS_Symbol
100
AcDbTrace
370
-1
  6
HS_Solid
 10
-8.37374927803365
 20
11.450806661517
 30
0
 11
-7.41510510396619
 21
10.9714845744833
 31
0
 12
-7
 22
13
 32
0
 13
-7
 23
13
 33
0
  0
LINE
  5
8E
100
AcDbEntity
  8
HS_Symbol
100
AcDbLine
370
-1
 10
9
 20
13
 30
0
 11
8.99999973773166
 21
7.00000000000001
 31
0
  0
SOLID
  5
8F
100
AcDbEntity
  8
HS_Symbol
100
AcDbTrace
370
-1
  6
HS_Solid
 10
9.5358981225939
 20
6.99999997657514
 30
0
 11
8.46410135286941
 21
7.00000002342487
 31
0
 12
8.99999965030888
 22
5.00000000000001
 32
0
 13
8.99999965030888
 23
5.00000000000001
 33
0
  0
LINE
  5
90
100
AcDbEntity
  8
HS_Symbol
100
AcDbLine
370
-1
 10
5
 20
5
 30
0
 11
4.99999973773166
 21
11
 31
0
  0
SOLID
  5
91
100
AcDbEntity
  8
HS_Symbol
100
AcDbTrace
370
-1
  6
HS_Solid
 10
4.46410135286942
 20
10.9999999765751
 30
0
 11
5.53589812259391
 21
11.0000000234249
 31
0
 12
4.99999965030888
 22
13
 32
0
 13
4.99999965030888
 23
13
 33
0
  0
LINE
  5
92
100
AcDbEntity
  8
HS_Symbol
100
AcDbLine
370
-1
 10
-3
 20
13
 30
0
 11
-3
 21
11
 31
0
  0
LINE
  5
93
100
AcDbEntity
  8
HS_Symbol
100
AcDbLine
370
-1
 10
-2
 20
10.9999999562886
 30
0
 11
-4
 21
11.0000000437114
 31
0
  0
LINE
  5
94
100
AcDbEntity
  8
HS_Symbol
100
AcDbLine
370
-1
 10
1
 20
13
 30
0
 11
1
 21
11
 31
0
  0
LINE
  5
95
100
AcDbEntity
  8
HS_Symbol
100
AcDbLine
370
-1
 10
2
 20
10.9999999562886
 30
0
 11
8.88178419700125E-16
 21
11.0000000437114
 31
0
  0
LINE
  5
96
100
AcDbEntity
  8
HS_Symbol
100
AcDbLine
370
-1
 10
1
 20
5
 30
0
 11
1
 21
7
 31
0
  0
LINE
  5
97
100
AcDbEntity
  8
HS_Symbol
100
AcDbLine
370
-1
 10
8.88178419700125E-16
 20
6.99999995628861
 30
0
 11
2
 21
7.00000004371139
 31
0
  0
LINE
  5
98
100
AcDbEntity
  8
HS_Symbol
100
AcDbLine
370
-1
 10
-3
 20
5
 30
0
 11
-3
 21
7
 31
0
  0
LINE
  5
99
100
AcDbEntity
  8
HS_Symbol
100
AcDbLine
370
-1
 10
-4
 20
6.99999995628861
 30
0
 11
-2
 21
7.00000004371139
 31
0
  0
LINE
  5
9A
100
AcDbEntity
  8
HS_Symbol
100
AcDbLine
370
-1
 10
1
 20
5
 30
0
 11
1
 21
1
 31
0
  0
LINE
  5
9B
100
AcDbEntity
  8
HS_Symbol
100
AcDbLine
370
-1
 10
1
 20
1
 30
0
 11
12
 21
1
 31
0
  0
LINE
  5
9C
100
AcDbEntity
  8
HS_Symbol
100
AcDbLine
370
-1
 10
12
 20
1
 30
0
 11
12
 21
-29
 31
0
  0
CIRCLE
  5
9D
100
AcDbEntity
  8
HS_Symbol
100
AcDbCircle
370
-1
 10
-20
 20
14
 30
0
 40
1
  0
LINE
  5
9E
100
AcDbEntity
  8
HS_Symbol
100
AcDbLine
370
-1
 10
-13
 20
8
 30
0
 11
-18.3
 21
8
 31
0
  0
LINE
  5
9F
100
AcDbEntity
  8
HS_Symbol
100
AcDbLine
370
-1
 10
-18
 20
7
 30
0
 11
-19.7
 21
13.1
 31
0
  0
LINE
  5
A0
100
AcDbEntity
  8
HS_Symbol
100
AcDbLine
370
-1
 10
-18.8
 20
10
 30
0
 11
-13
 21
10
 31
0
  0
CIRCLE
  5
A1
100
AcDbEntity
  8
HS_Symbol
100
AcDbCircle
370
-1
 10
-11.0000000582819
 20
24.6666666666667
 30
0
 40
1.33333333333333
  0
LINE
  5
A2
100
AcDbEntity
  8
HS_Symbol
100
AcDbLine
370
-1
 10
-11.0000001407048
 20
22.781048542291
 30
0
 11
-11.0000001748456
 21
22
 31
0
  0
LWPOLYLINE
  5
A3
100
AcDbEntity
  8
HS_Symbol
100
AcDbPolyline
370
-1
 38
0
 90
3
 70
0
 10
-8.33333335747447
 20
25.447715092394
 10
-11.0000001407048
 20
22.781048542291
 10
-13.6666666908078
 20
25.4477153255214
  0
LWPOLYLINE
  5
A4
100
AcDbEntity
  8
HS_Symbol
100
AcDbPolyline
370
-1
 38
0
 90
8
 70
0
 10
-11
 20
26
 10
-12
 20
26.25
 10
-10
 20
26.75
 10
-12
 20
27.25
 10
-10
 20
27.75
 10
-12
 20
28.25
 10
-10
 20
28.75
 10
-11
 20
29
  0
LINE
  5
A5
100
AcDbEntity
  8
HS_Symbol
100
AcDbLine
370
-1
 10
-11
 20
26
 30
0
 11
-11
 21
30
 31
0
  0
LINE
  5
A6
100
AcDbEntity
  8
HS_Symbol
100
AcDbLine
370
-1
 10
-11
 20
22
 30
0
 11
-11
 21
17
 31
0
  0
CIRCLE
  5
A7
100
AcDbEntity
  8
HS_Symbol
100
AcDbCircle
370
-1
 10
8.99999994171815
 20
24.6666666666667
 30
0
 40
1.33333333333333
  0
LINE
  5
A8
100
AcDbEntity
  8
HS_Symbol
100
AcDbLine
370
-1
 10
8.99999985929516
 20
22.781048542291
 30
0
 11
8.99999982515444
 21
22
 31
0
  0
LWPOLYLINE
  5
A9
100
AcDbEntity
  8
HS_Symbol
100
AcDbPolyline
370
-1
 38
0
 90
3
 70
0
 10
11.6666666425255
 20
25.447715092394
 10
8.99999985929516
 20
22.781048542291
 10
6.3333333091922
 20
25.4477153255214
  0
LWPOLYLINE
  5
AA
100
AcDbEntity
  8
HS_Symbol
100
AcDbPolyline
370
-1
 38
0
 90
8
 70
0
 10
9
 20
26
 10
8
 20
26.25
 10
10
 20
26.75
 10
8
 20
27.25
 10
10
 20
27.75
 10
8
 20
28.25
 10
10
 20
28.75
 10
9
 20
29
  0
LINE
  5
AB
100
AcDbEntity
  8
HS_Symbol
100
AcDbLine
370
-1
 10
9
 20
26
 30
0
 11
9
 21
30
 31
0
  0
LINE
  5
AC
100
AcDbEntity
  8
HS_Symbol
100
AcDbLine
370
-1
 10
9
 20
22
 30
0
 11
9
 21
17
 31
0
  0
LINE
  5
AD
100
AcDbEntity
  8
HS_Symbol
100
AcDbLine
370
-1
 10
-11
 20
17
 30
0
 11
-3
 21
17
 31
0
  0
LINE
  5
AE
100
AcDbEntity
  8
HS_Symbol
100
AcDbLine
370
-1
 10
-3
 20
17
 30
0
 11
-3
 21
13
 31
0
  0
LINE
  5
AF
100
AcDbEntity
  8
HS_Symbol
100
AcDbLine
370
-1
 10
9
 20
17
 30
0
 11
1
 21
17
 31
0
  0
LINE
  5
B0
100
AcDbEntity
  8
HS_Symbol
100
AcDbLine
370
-1
 10
1
 20
17
 30
0
 11
1
 21
13
 31
0
  0
LINE
  5
B1
100
AcDbEntity
  8
HS_Symbol
100
AcDbLine
370
-1
  6
HS_Hidden
 10
-11
 20
19
 30
0
 11
8
 21
24
 31
0
  0
LINE
  5
B2
100
AcDbEntity
  8
HS_Symbol
100
AcDbLine
370
-1
  6
HS_Hidden
 10
9
 20
19
 30
0
 11
-10
 21
24
 31
0
  0
CIRCLE
  5
B3
100
AcDbEntity
  8
HS_Symbol
100
AcDbCircle
370
-1
  6
HS_Solid
 10
-11
 20
19
 30
0
 40
0.5
  0
LWPOLYLINE
  5
B4
100
AcDbEntity
  8
HS_Symbol
100
AcDbPolyline
  6
HS_Solid
 38
0
 90
22
 70
0
 10
-11.2763853991963
 20
19.4166666666667
 10
-10.7236146008037
 20
19.4166666666667
 10
-11.37267799625
 20
19.3333333333333
 10
-10.62732200375
 20
19.3333333333333
 10
-11.4330127018922
 20
19.25
 10
-10.5669872981078
 20
19.25
 10
-11.471404520791
 20
19.1666666666667
 10
-10.528595479209
 20
19.1666666666667
 10
-11.4930066485916
 20
19.0833333333333
 10
-10.5069933514084
 20
19.0833333333333
 10
-11.5
 20
19
 10
-10.5
 20
19
 10
-11.4930066485916
 20
18.9166666666667
 10
-10.5069933514084
 20
18.9166666666667
 10
-11.471404520791
 20
18.8333333333333
 10
-10.528595479209
 20
18.8333333333333
 10
-11.4330127018922
 20
18.75
 10
-10.5669872981078
 20
18.75
 10
-11.37267799625
 20
18.6666666666667
 10
-10.62732200375
 20
18.6666666666667
 10
-11.2763853991963
 20
18.5833333333333
 10
-10.7236146008037
 20
18.5833333333333
  0
CIRCLE
  5
B5
100
AcDbEntity
  8
HS_Symbol
100
AcDbCircle
370
-1
  6
HS_Solid
 10
9
 20
19
 30
0
 40
0.5
  0
LWPOLYLINE
  5
B6
100
AcDbEntity
  8
HS_Symbol
100
AcDbPolyline
  6
HS_Solid
 38
0
 90
22
 70
0
 10
8.72361460080372
 20
19.4166666666667
 10
9.27638539919628
 20
19.4166666666667
 10
8.62732200375004
 20
19.3333333333333
 10
9.37267799624997
 20
19.3333333333333
 10
8.56698729810778
 20
19.25
 10
9.43301270189222
 20
19.25
 10
8.52859547920897
 20
19.1666666666667
 10
9.47140452079103
 20
19.1666666666667
 10
8.50699335140837
 20
19.0833333333333
 10
9.49300664859163
 20
19.0833333333333
 10
8.5
 20
19
 10
9.5
 20
19
 10
8.50699335140837
 20
18.9166666666667
 10
9.49300664859163
 20
18.9166666666667
 10
8.52859547920897
 20
18.8333333333333
 10
9.47140452079103
 20
18.8333333333333
 10
8.56698729810778
 20
18.75
 10
9.43301270189222
 20
18.75
 10
8.62732200375004
 20
18.6666666666667
 10
9.37267799624997
 20
18.6666666666667
 10
8.72361460080372
 20
18.5833333333333
 10
9.27638539919628
 20
18.5833333333333
  0
TEXT
  5
B7
100
AcDbEntity
  8
HS_Text
100
AcDbText
370
-1
 10
-6
 20
25
 30
0
 40
1.5
  1
5:1
 50
0
 41
1
 51
0
  7
TextStyle_Text
 71
0
 72
1
 11
-6
 21
25
 31
0
100
AcDbText
 73
2
  0
TEXT
  5
B8
100
AcDbEntity
  8
HS_Text
100
AcDbText
370
-1
 10
4
 20
25
 30
0
 40
1.5
  1
5:1
 50
0
 41
1
 51
0
  7
TextStyle_Text
 71
0
 72
1
 11
4
 21
25
 31
0
100
AcDbText
 73
2
  0
ENDSEC
  0
SECTION
  2
OBJECTS
  0
DICTIONARY
  5
B9
100
AcDbDictionary
  3
ACAD_GROUP
350
BA
  3
ACAD_MATERIAL
350
BB
  3
ACAD_WIPEOUT_VARS
350
BC
  3
ACAD_MLINESTYLE
350
BD
  3
ACAD_LAYOUT
350
BE
  0
DICTIONARY
  5
BA
330
B9
100
AcDbDictionary
  0
DICTIONARY
  5
BB
330
B9
100
AcDbDictionary
  0
WIPEOUTVARIABLES
  5
BC
330
B9
100
AcDbWipeoutVariables
 70
1
  0
DICTIONARY
  5
BD
330
B9
100
AcDbDictionary
  3
STANDARD
350
BF
  0
MLINESTYLE
  5
BF
100
AcDbMlineStyle
  2
STANDARD
 70
0
  3

 62
256
 51
90
 52
90
 71
2
 49
0.5
 62
256
  6
ByLayer
 49
-0.5
 62
256
  6
ByLayer
  0
DICTIONARY
  5
BE
100
AcDbDictionary
281
1
  3
Model
350
13
  0
LAYOUT
  5
13
102
{ACAD_REACTORS
330
BE
102
}
330
BE
100
AcDbPlotSettings
  1

  2
none_device
  4

  6

 40
0
 41
0
 42
0
 43
0
 44
0
 45
0
 46
0
 47
0
 48
0
 49
0
 70
1712
 72
1
 73
0
 74
5
 75
16
 76
0
 77
0
 78
100
140
0
141
0
142
1
143
1
147
1
148
0
149
0
100
AcDbLayout
  1
Model
 70
1
 71
1
 10
-19.7
 20
-29
 11
12
 21
30
 12
0
 22
0
 32
0
 14
-19.7
 24
-29
 34
0
 15
12
 25
30
 35
0
146
0
 13
0
 23
0
 33
0
 16
1
 26
0
 36
0
 17
0
 27
1
 37
0
 76
0
330
63
  0
DICTIONARY
  5
C0
100
AcDbDictionary
280
1
  3
XINFO
360
C1
  0
XRECORD
  5
C1
102
{ACAD_REACTORS
330
C0
102
}
330
C0
100
AcDbXrecord
280
0
310
000000007D00E807
311
BE339E6EF11CC7F8
  0
ENDSEC
  0
EOF
