999
The file was created in CADSoftTools software
999

  0
SECTION
  2
HEADER
  9
$ACADVER
  1
AC1015
  9
$DWGCODEPAGE
  3
ANSI_1252
  9
$CLAYER
  8
0
  9
$CELTYPE
  6
BYLAYER
  9
$CELTSCALE
 40
1
  9
$CELWEIGHT
370
-1
  9
$DIMALT
 70
0
  9
$DIMALTF
 40
1
  9
$DIMPOST
  1

  9
$DIMAPOST
  1

  9
$DIMSCALE
 40
1
  9
$DIMASZ
 40
0.18
  9
$DIMCLRD
 70
0
  9
$DIMCLRE
 70
0
  9
$DIMCLRT
 70
0
  9
$DIMEXE
 40
0.18
  9
$DIMEXO
 40
0.0625
  9
$DIMGAP
 40
0.0625
  9
$DIMLFAC
 40
1
  9
$DIMDEC
 70
4
  9
$DIMTAD
 70
0
  9
$DIMCEN
 40
0.09
  9
$DIMTIH
 70
1
  9
$DIMTIX
 70
0
  9
$DIMTOH
 70
1
  9
$DIMSE1
 70
0
  9
$DIMSE2
 70
0
  9
$DIMSD1
 70
0
  9
$DIMSD2
 70
0
  9
$DIMLWD
 70
-1
  9
$DIMLWE
 70
-1
  9
$DIMSAH
 70
0
  9
$DIMBLK
  1

  9
$DIMBLK1
  1

  9
$DIMBLK2
  1

  9
$DIMLDRBLK
  1

  9
$DIMSTYLE
  2
STANDARD
  9
$DIMTP
 40
0
  9
$DIMTM
 40
0
  9
$DIMTXT
 40
0.18
  9
$DIMLUNIT
 70
2
  9
$DIMDSEP
 70
46
  9
$DIMTXSTY
  7
STANDARD
  9
$TEXTSIZE
 40
0.18
  9
$TEXTSTYLE
  7
STANDARD
  9
$HANDSEED
  5
000000000000011E
  9
$FILLETRAD
 40
0.5
  9
$INSUNITS
 70
4
  9
$LIMMIN
 10
-61.5
 20
-35.6875
  9
$LIMMAX
 10
73.5
 20
76.1875
  9
$FILLMODE
 70
1
  9
$LTSCALE
 40
1
  9
$MEASUREMENT
 70
0
  9
$ATTMODE
 70
1
  9
$PDMODE
 70
0
  9
$PDSIZE
 40
0
  9
$TILEMODE
 70
1
  9
$UCSORG
 10
0
 20
0
 30
0
  9
$UCSXDIR
 10
1
 20
0
 30
0
  9
$UCSYDIR
 10
0
 20
1
 30
0
  9
$INSBASE
 10
0
 20
0
 30
0
  9
$XCLIPFRAME
290
1
  9
$DIMASSOC
280
2
  9
$TDCREATE
 40
2460469.42145756
  9
$TDINDWG
 40
2.43055555555556E-7
  9
$TDUPDATE
 40
2460469.4214578
  0
ENDSEC
  0
SECTION
  2
CLASSES
  0
CLASS
  1
IMAGE
  2
AcDbRasterImage
  3
ISM
 90
2175
280
0
281
1
  0
CLASS
  1
IMAGEDEF
  2
AcDbRasterImageDef
  3
ISM
 90
0
280
0
281
0
  0
CLASS
  1
WIPEOUT
  2
AcDbWipeout
  3
"WipeOut"
 90
2175
280
0
281
1
  0
CLASS
  1
WIPEOUTVARIABLES
  2
AcDbWipeoutVariables
  3
"WipeOut"
 90
0
280
0
281
0
  0
CLASS
  1
MPOLYGON
  2
AcDbMPolygon
  3
"AcMPolygonObj15"
 90
3071
280
0
281
1
  0
ENDSEC
  0
SECTION
  2
TABLES
  0
TABLE
  2
APPID
  5
64
100
AcDbSymbolTable
  0
APPID
  5
65
100
AcDbSymbolTableRecord
100
AcDbRegAppTableRecord
  2
ACAD
 70
0
  0
APPID
  5
12
100
AcDbSymbolTableRecord
100
AcDbRegAppTableRecord
  2
CSTINVENTORY
 70
0
  0
APPID
  5
66
100
AcDbSymbolTableRecord
100
AcDbRegAppTableRecord
  2
AcDbAttr
 70
0
  0
APPID
  5
67
100
AcDbSymbolTableRecord
100
AcDbRegAppTableRecord
  2
PE_URL
 70
0
  0
ENDTAB
  0
TABLE
  2
BLOCK_RECORD
  5
68
100
AcDbSymbolTable
  0
BLOCK_RECORD
  5
63
100
AcDbSymbolTableRecord
100
AcDbBlockTableRecord
  2
*MODEL_SPACE
  0
BLOCK_RECORD
  5
69
100
AcDbSymbolTableRecord
100
AcDbBlockTableRecord
  2
*PAPER_SPACE
  0
BLOCK_RECORD
  5
10
100
AcDbSymbolTableRecord
100
AcDbBlockTableRecord
  2
_CLOSEDFILLED
  0
ENDTAB
  0
TABLE
  2
STYLE
  5
3
100
AcDbSymbolTable
  0
STYLE
  5
A
100
AcDbSymbolTableRecord
100
AcDbTextStyleTableRecord
  2
STANDARD
 70
0
 40
0
 41
1
 50
0
 71
0
 42
2.5
  3
txt
  4

  0
STYLE
  5
2E
100
AcDbSymbolTableRecord
100
AcDbTextStyleTableRecord
  2
HS_Text1
 70
0
 40
0
 41
1
 50
0
 71
0
 42
2.5
  3
arial.ttf
  4

1001
ACAD
1000
Arial
1071
0
  0
STYLE
  5
2F
100
AcDbSymbolTableRecord
100
AcDbTextStyleTableRecord
  2
HS_Text1__BD
 70
0
 40
0
 41
1
 50
0
 71
0
 42
2.5
  3
arialbd.ttf
  4

1001
ACAD
1000
Arial
1071
33554432
  0
STYLE
  5
30
100
AcDbSymbolTableRecord
100
AcDbTextStyleTableRecord
  2
HS_Text1__IT
 70
0
 40
0
 41
1
 50
0
 71
0
 42
2.5
  3
arialbi.ttf
  4

1001
ACAD
1000
Arial
1071
16777216
  0
STYLE
  5
31
100
AcDbSymbolTableRecord
100
AcDbTextStyleTableRecord
  2
HS_Text1__BI
 70
0
 40
0
 41
1
 50
0
 71
0
 42
2.5
  3
arialbi.ttf
  4

1001
ACAD
1000
Arial
1071
50331648
  0
STYLE
  5
32
100
AcDbSymbolTableRecord
100
AcDbTextStyleTableRecord
  2
TextStyle_Attribute
 70
0
 40
0
 41
1
 50
0
 71
0
 42
2.5
  3
arial.ttf
  4

1001
ACAD
1000
Arial
1071
0
  0
STYLE
  5
33
100
AcDbSymbolTableRecord
100
AcDbTextStyleTableRecord
  2
TextStyle_Attribute__BD
 70
0
 40
0
 41
1
 50
0
 71
0
 42
2.5
  3
arialbd.ttf
  4

1001
ACAD
1000
Arial
1071
33554432
  0
STYLE
  5
34
100
AcDbSymbolTableRecord
100
AcDbTextStyleTableRecord
  2
TextStyle_Attribute__IT
 70
0
 40
0
 41
1
 50
0
 71
0
 42
2.5
  3
arialbi.ttf
  4

1001
ACAD
1000
Arial
1071
16777216
  0
STYLE
  5
35
100
AcDbSymbolTableRecord
100
AcDbTextStyleTableRecord
  2
TextStyle_Attribute__BI
 70
0
 40
0
 41
1
 50
0
 71
0
 42
2.5
  3
arialbi.ttf
  4

1001
ACAD
1000
Arial
1071
50331648
  0
STYLE
  5
36
100
AcDbSymbolTableRecord
100
AcDbTextStyleTableRecord
  2
TextStyle_BOM
 70
0
 40
0
 41
1
 50
0
 71
0
 42
2.5
  3
ARIALN.TTF
  4

1001
ACAD
1000
Arial Narrow
1071
0
  0
STYLE
  5
37
100
AcDbSymbolTableRecord
100
AcDbTextStyleTableRecord
  2
TextStyle_BOM__BD
 70
0
 40
0
 41
1
 50
0
 71
0
 42
2.5
  3
ARIALNB.TTF
  4

1001
ACAD
1000
Arial Narrow
1071
33554432
  0
STYLE
  5
38
100
AcDbSymbolTableRecord
100
AcDbTextStyleTableRecord
  2
TextStyle_BOM__IT
 70
0
 40
0
 41
1
 50
0
 71
0
 42
2.5
  3
ARIALNBI.TTF
  4

1001
ACAD
1000
Arial Narrow
1071
16777216
  0
STYLE
  5
39
100
AcDbSymbolTableRecord
100
AcDbTextStyleTableRecord
  2
TextStyle_BOM__BI
 70
0
 40
0
 41
1
 50
0
 71
0
 42
2.5
  3
ARIALNBI.TTF
  4

1001
ACAD
1000
Arial Narrow
1071
50331648
  0
STYLE
  5
3A
100
AcDbSymbolTableRecord
100
AcDbTextStyleTableRecord
  2
TextStyle_ConnectionLineFlow
 70
0
 40
0
 41
1
 50
0
 71
0
 42
2.5
  3
arial.ttf
  4

1001
ACAD
1000
Arial
1071
0
  0
STYLE
  5
3B
100
AcDbSymbolTableRecord
100
AcDbTextStyleTableRecord
  2
TextStyle_ConnectionLineFlow__BD
 70
0
 40
0
 41
1
 50
0
 71
0
 42
2.5
  3
arialbd.ttf
  4

1001
ACAD
1000
Arial
1071
33554432
  0
STYLE
  5
3C
100
AcDbSymbolTableRecord
100
AcDbTextStyleTableRecord
  2
TextStyle_ConnectionLineFlow__IT
 70
0
 40
0
 41
1
 50
0
 71
0
 42
2.5
  3
arialbi.ttf
  4

1001
ACAD
1000
Arial
1071
16777216
  0
STYLE
  5
3D
100
AcDbSymbolTableRecord
100
AcDbTextStyleTableRecord
  2
TextStyle_ConnectionLineFlow__BI
 70
0
 40
0
 41
1
 50
0
 71
0
 42
2.5
  3
arialbi.ttf
  4

1001
ACAD
1000
Arial
1071
50331648
  0
STYLE
  5
3E
100
AcDbSymbolTableRecord
100
AcDbTextStyleTableRecord
  2
TextStyle_ConnectionLineSize
 70
0
 40
0
 41
1
 50
0
 71
0
 42
2.5
  3
arial.ttf
  4

1001
ACAD
1000
Arial
1071
0
  0
STYLE
  5
3F
100
AcDbSymbolTableRecord
100
AcDbTextStyleTableRecord
  2
TextStyle_ConnectionLineSize__BD
 70
0
 40
0
 41
1
 50
0
 71
0
 42
2.5
  3
arialbd.ttf
  4

1001
ACAD
1000
Arial
1071
33554432
  0
STYLE
  5
40
100
AcDbSymbolTableRecord
100
AcDbTextStyleTableRecord
  2
TextStyle_ConnectionLineSize__IT
 70
0
 40
0
 41
1
 50
0
 71
0
 42
2.5
  3
arialbi.ttf
  4

1001
ACAD
1000
Arial
1071
16777216
  0
STYLE
  5
41
100
AcDbSymbolTableRecord
100
AcDbTextStyleTableRecord
  2
TextStyle_ConnectionLineSize__BI
 70
0
 40
0
 41
1
 50
0
 71
0
 42
2.5
  3
arialbi.ttf
  4

1001
ACAD
1000
Arial
1071
50331648
  0
STYLE
  5
42
100
AcDbSymbolTableRecord
100
AcDbTextStyleTableRecord
  2
TextStyle_ConnectionLineVelocity
 70
0
 40
0
 41
1
 50
0
 71
0
 42
2.5
  3
arial.ttf
  4

1001
ACAD
1000
Arial
1071
0
  0
STYLE
  5
43
100
AcDbSymbolTableRecord
100
AcDbTextStyleTableRecord
  2
TextStyle_ConnectionLineVelocity__BD
 70
0
 40
0
 41
1
 50
0
 71
0
 42
2.5
  3
arialbd.ttf
  4

1001
ACAD
1000
Arial
1071
33554432
  0
STYLE
  5
44
100
AcDbSymbolTableRecord
100
AcDbTextStyleTableRecord
  2
TextStyle_ConnectionLineVelocity__IT
 70
0
 40
0
 41
1
 50
0
 71
0
 42
2.5
  3
arialbi.ttf
  4

1001
ACAD
1000
Arial
1071
16777216
  0
STYLE
  5
45
100
AcDbSymbolTableRecord
100
AcDbTextStyleTableRecord
  2
TextStyle_ConnectionLineVelocity__BI
 70
0
 40
0
 41
1
 50
0
 71
0
 42
2.5
  3
arialbi.ttf
  4

1001
ACAD
1000
Arial
1071
50331648
  0
STYLE
  5
46
100
AcDbSymbolTableRecord
100
AcDbTextStyleTableRecord
  2
TextStyle_HoseType
 70
0
 40
0
 41
1
 50
0
 71
0
 42
2.5
  3
arial.ttf
  4

1001
ACAD
1000
Arial
1071
0
  0
STYLE
  5
47
100
AcDbSymbolTableRecord
100
AcDbTextStyleTableRecord
  2
TextStyle_HoseType__BD
 70
0
 40
0
 41
1
 50
0
 71
0
 42
2.5
  3
arialbd.ttf
  4

1001
ACAD
1000
Arial
1071
33554432
  0
STYLE
  5
48
100
AcDbSymbolTableRecord
100
AcDbTextStyleTableRecord
  2
TextStyle_HoseType__IT
 70
0
 40
0
 41
1
 50
0
 71
0
 42
2.5
  3
arialbi.ttf
  4

1001
ACAD
1000
Arial
1071
16777216
  0
STYLE
  5
49
100
AcDbSymbolTableRecord
100
AcDbTextStyleTableRecord
  2
TextStyle_HoseType__BI
 70
0
 40
0
 41
1
 50
0
 71
0
 42
2.5
  3
arialbi.ttf
  4

1001
ACAD
1000
Arial
1071
50331648
  0
STYLE
  5
4A
100
AcDbSymbolTableRecord
100
AcDbTextStyleTableRecord
  2
TextStyle_IPort
 70
0
 40
0
 41
1
 50
0
 71
0
 42
2.5
  3
arial.ttf
  4

1001
ACAD
1000
Arial
1071
0
  0
STYLE
  5
4B
100
AcDbSymbolTableRecord
100
AcDbTextStyleTableRecord
  2
TextStyle_IPort__BD
 70
0
 40
0
 41
1
 50
0
 71
0
 42
2.5
  3
arialbd.ttf
  4

1001
ACAD
1000
Arial
1071
33554432
  0
STYLE
  5
4C
100
AcDbSymbolTableRecord
100
AcDbTextStyleTableRecord
  2
TextStyle_IPort__IT
 70
0
 40
0
 41
1
 50
0
 71
0
 42
2.5
  3
arialbi.ttf
  4

1001
ACAD
1000
Arial
1071
16777216
  0
STYLE
  5
4D
100
AcDbSymbolTableRecord
100
AcDbTextStyleTableRecord
  2
TextStyle_IPort__BI
 70
0
 40
0
 41
1
 50
0
 71
0
 42
2.5
  3
arialbi.ttf
  4

1001
ACAD
1000
Arial
1071
50331648
  0
STYLE
  5
4E
100
AcDbSymbolTableRecord
100
AcDbTextStyleTableRecord
  2
TextStyle_ItemNumber
 70
0
 40
0
 41
1
 50
0
 71
0
 42
2.5
  3
arial.ttf
  4

1001
ACAD
1000
Arial
1071
0
  0
STYLE
  5
4F
100
AcDbSymbolTableRecord
100
AcDbTextStyleTableRecord
  2
TextStyle_ItemNumber__BD
 70
0
 40
0
 41
1
 50
0
 71
0
 42
2.5
  3
arialbd.ttf
  4

1001
ACAD
1000
Arial
1071
33554432
  0
STYLE
  5
50
100
AcDbSymbolTableRecord
100
AcDbTextStyleTableRecord
  2
TextStyle_ItemNumber__IT
 70
0
 40
0
 41
1
 50
0
 71
0
 42
2.5
  3
arialbi.ttf
  4

1001
ACAD
1000
Arial
1071
16777216
  0
STYLE
  5
51
100
AcDbSymbolTableRecord
100
AcDbTextStyleTableRecord
  2
TextStyle_ItemNumber__BI
 70
0
 40
0
 41
1
 50
0
 71
0
 42
2.5
  3
arialbi.ttf
  4

1001
ACAD
1000
Arial
1071
50331648
  0
STYLE
  5
52
100
AcDbSymbolTableRecord
100
AcDbTextStyleTableRecord
  2
TextStyle_Port
 70
0
 40
0
 41
1
 50
0
 71
0
 42
2.5
  3
arial.ttf
  4

1001
ACAD
1000
Arial
1071
0
  0
STYLE
  5
53
100
AcDbSymbolTableRecord
100
AcDbTextStyleTableRecord
  2
TextStyle_Port__BD
 70
0
 40
0
 41
1
 50
0
 71
0
 42
2.5
  3
arialbd.ttf
  4

1001
ACAD
1000
Arial
1071
33554432
  0
STYLE
  5
54
100
AcDbSymbolTableRecord
100
AcDbTextStyleTableRecord
  2
TextStyle_Port__IT
 70
0
 40
0
 41
1
 50
0
 71
0
 42
2.5
  3
arialbi.ttf
  4

1001
ACAD
1000
Arial
1071
16777216
  0
STYLE
  5
55
100
AcDbSymbolTableRecord
100
AcDbTextStyleTableRecord
  2
TextStyle_Port__BI
 70
0
 40
0
 41
1
 50
0
 71
0
 42
2.5
  3
arialbi.ttf
  4

1001
ACAD
1000
Arial
1071
50331648
  0
STYLE
  5
56
100
AcDbSymbolTableRecord
100
AcDbTextStyleTableRecord
  2
TextStyle_Revisions
 70
0
 40
0
 41
1
 50
0
 71
0
 42
2.5
  3
arial.ttf
  4

1001
ACAD
1000
Arial
1071
0
  0
STYLE
  5
57
100
AcDbSymbolTableRecord
100
AcDbTextStyleTableRecord
  2
TextStyle_Revisions__BD
 70
0
 40
0
 41
1
 50
0
 71
0
 42
2.5
  3
arialbd.ttf
  4

1001
ACAD
1000
Arial
1071
33554432
  0
STYLE
  5
58
100
AcDbSymbolTableRecord
100
AcDbTextStyleTableRecord
  2
TextStyle_Revisions__IT
 70
0
 40
0
 41
1
 50
0
 71
0
 42
2.5
  3
arialbi.ttf
  4

1001
ACAD
1000
Arial
1071
16777216
  0
STYLE
  5
59
100
AcDbSymbolTableRecord
100
AcDbTextStyleTableRecord
  2
TextStyle_Revisions__BI
 70
0
 40
0
 41
1
 50
0
 71
0
 42
2.5
  3
arialbi.ttf
  4

1001
ACAD
1000
Arial
1071
50331648
  0
STYLE
  5
5A
100
AcDbSymbolTableRecord
100
AcDbTextStyleTableRecord
  2
TextStyle_RevTriangle
 70
0
 40
0
 41
1
 50
0
 71
0
 42
2.5
  3
arial.ttf
  4

1001
ACAD
1000
Arial
1071
0
  0
STYLE
  5
5B
100
AcDbSymbolTableRecord
100
AcDbTextStyleTableRecord
  2
TextStyle_RevTriangle__BD
 70
0
 40
0
 41
1
 50
0
 71
0
 42
2.5
  3
arialbd.ttf
  4

1001
ACAD
1000
Arial
1071
33554432
  0
STYLE
  5
5C
100
AcDbSymbolTableRecord
100
AcDbTextStyleTableRecord
  2
TextStyle_RevTriangle__IT
 70
0
 40
0
 41
1
 50
0
 71
0
 42
2.5
  3
arialbi.ttf
  4

1001
ACAD
1000
Arial
1071
16777216
  0
STYLE
  5
5D
100
AcDbSymbolTableRecord
100
AcDbTextStyleTableRecord
  2
TextStyle_RevTriangle__BI
 70
0
 40
0
 41
1
 50
0
 71
0
 42
2.5
  3
arialbi.ttf
  4

1001
ACAD
1000
Arial
1071
50331648
  0
STYLE
  5
5E
100
AcDbSymbolTableRecord
100
AcDbTextStyleTableRecord
  2
TextStyle_Text
 70
0
 40
0
 41
1
 50
0
 71
0
 42
2.5
  3
arial.ttf
  4

1001
ACAD
1000
Arial
1071
0
  0
STYLE
  5
5F
100
AcDbSymbolTableRecord
100
AcDbTextStyleTableRecord
  2
TextStyle_Text__BD
 70
0
 40
0
 41
1
 50
0
 71
0
 42
2.5
  3
arialbd.ttf
  4

1001
ACAD
1000
Arial
1071
33554432
  0
STYLE
  5
60
100
AcDbSymbolTableRecord
100
AcDbTextStyleTableRecord
  2
TextStyle_Text__IT
 70
0
 40
0
 41
1
 50
0
 71
0
 42
2.5
  3
arialbi.ttf
  4

1001
ACAD
1000
Arial
1071
16777216
  0
STYLE
  5
61
100
AcDbSymbolTableRecord
100
AcDbTextStyleTableRecord
  2
TextStyle_Text__BI
 70
0
 40
0
 41
1
 50
0
 71
0
 42
2.5
  3
arialbi.ttf
  4

1001
ACAD
1000
Arial
1071
50331648
  0
ENDTAB
  0
TABLE
  2
LTYPE
  5
1
100
AcDbSymbolTable
  0
LTYPE
  5
9
100
AcDbSymbolTableRecord
100
AcDbLinetypeTableRecord
  2
CONTINUOUS
 70
0
  3

 72
65
 73
0
 40
0
  0
LTYPE
  5
7
100
AcDbSymbolTableRecord
100
AcDbLinetypeTableRecord
  2
BYLAYER
 70
0
  3

 72
65
 73
0
 40
0
  0
LTYPE
  5
8
100
AcDbSymbolTableRecord
100
AcDbLinetypeTableRecord
  2
BYBLOCK
 70
0
  3

 72
65
 73
0
 40
0
  0
LTYPE
  5
14
100
AcDbSymbolTableRecord
100
AcDbLinetypeTableRecord
  2
HS_Default
 70
0
  3

 72
65
 73
0
 40
0
  0
LTYPE
  5
15
100
AcDbSymbolTableRecord
100
AcDbLinetypeTableRecord
  2
HS_Solid
 70
0
  3

 72
65
 73
0
 40
0
  0
LTYPE
  5
16
100
AcDbSymbolTableRecord
100
AcDbLinetypeTableRecord
  2
HS_Hidden
 70
0
  3
_ 
 72
65
 73
2
 40
2.3
 49
1.5
 74
0
 49
-0.8
 74
0
  0
LTYPE
  5
17
100
AcDbSymbolTableRecord
100
AcDbLinetypeTableRecord
  2
HS_Dashed
 70
0
  3
_ 
 72
65
 73
2
 40
3.3
 49
2.5
 74
0
 49
-0.8
 74
0
  0
LTYPE
  5
18
100
AcDbSymbolTableRecord
100
AcDbLinetypeTableRecord
  2
HS_Border
 70
0
  3
_ _ 
 72
65
 73
4
 40
10
 49
6.5
 74
0
 49
-1
 74
0
 49
1.5
 74
0
 49
-1
 74
0
  0
ENDTAB
  0
TABLE
  2
LAYER
  5
2
100
AcDbSymbolTable
  0
LAYER
  5
E
100
AcDbSymbolTableRecord
100
AcDbLayerTableRecord
  2
0
 70
0
 62
7
  6
CONTINUOUS
290
1
370
-3
390
0
  0
LAYER
  5
19
100
AcDbSymbolTableRecord
100
AcDbLayerTableRecord
  2
HS_Symbol
 70
0
 62
7
  6
HS_Solid
290
1
370
35
390
0
  0
LAYER
  5
1A
100
AcDbSymbolTableRecord
100
AcDbLayerTableRecord
  2
HS_Solenoid
 70
0
 62
7
  6
HS_Solid
290
1
370
35
390
0
  0
LAYER
  5
1B
100
AcDbSymbolTableRecord
100
AcDbLayerTableRecord
  2
HS_Orifice
 70
0
 62
7
  6
HS_Solid
290
1
370
35
390
0
  0
LAYER
  5
1C
100
AcDbSymbolTableRecord
100
AcDbLayerTableRecord
  2
HS_Line
 70
0
 62
7
  6
HS_Solid
290
1
370
18
390
0
  0
LAYER
  5
1D
100
AcDbSymbolTableRecord
100
AcDbLayerTableRecord
  2
HS_Pilot
 70
0
 62
7
  6
HS_Dashed
290
1
370
18
390
0
  0
LAYER
  5
1E
100
AcDbSymbolTableRecord
100
AcDbLayerTableRecord
  2
HS_Drain
 70
0
 62
7
  6
HS_Hidden
290
1
370
18
390
0
  0
LAYER
  5
1F
100
AcDbSymbolTableRecord
100
AcDbLayerTableRecord
  2
HS_Border
 70
0
 62
7
  6
HS_Border
290
1
370
25
390
0
  0
LAYER
  5
20
100
AcDbSymbolTableRecord
100
AcDbLayerTableRecord
  2
HS_IBorder
 70
0
 62
7
  6
HS_Border
290
1
370
35
390
0
  0
LAYER
  5
21
100
AcDbSymbolTableRecord
100
AcDbLayerTableRecord
  2
HS_Text
 70
0
 62
7
  6
HS_Solid
290
1
390
0
  0
LAYER
  5
22
100
AcDbSymbolTableRecord
100
AcDbLayerTableRecord
  2
HS_Attribute
 70
0
 62
7
  6
HS_Solid
290
1
390
0
  0
LAYER
  5
23
100
AcDbSymbolTableRecord
100
AcDbLayerTableRecord
  2
HS_ItemNumber
 70
0
 62
7
  6
HS_Solid
290
1
390
0
  0
LAYER
  5
24
100
AcDbSymbolTableRecord
100
AcDbLayerTableRecord
  2
HS_Leader
 70
0
 62
7
  6
HS_Solid
290
1
390
0
  0
LAYER
  5
25
100
AcDbSymbolTableRecord
100
AcDbLayerTableRecord
  2
HS_Port
 70
0
 62
7
  6
HS_Solid
290
1
370
35
390
0
  0
LAYER
  5
26
100
AcDbSymbolTableRecord
100
AcDbLayerTableRecord
  2
HS_Connection_Line
 70
0
 62
7
  6
HS_Solid
290
1
370
35
390
0
  0
LAYER
  5
27
100
AcDbSymbolTableRecord
100
AcDbLayerTableRecord
  2
HS_Hose
 70
0
 62
7
  6
HS_Solid
290
1
370
35
390
0
  0
LAYER
  5
28
100
AcDbSymbolTableRecord
100
AcDbLayerTableRecord
  2
HS_Electric
 70
0
 62
7
  6
HS_Solid
290
1
370
35
390
0
  0
LAYER
  5
29
100
AcDbSymbolTableRecord
100
AcDbLayerTableRecord
  2
Pressure
 70
0
 62
30
  6
HS_Solid
290
1
370
20
390
0
  0
LAYER
  5
2A
100
AcDbSymbolTableRecord
100
AcDbLayerTableRecord
  2
Reservoir
 70
0
 62
140
  6
HS_Solid
290
1
370
20
390
0
  0
LAYER
  5
2B
100
AcDbSymbolTableRecord
100
AcDbLayerTableRecord
  2
Control
 70
0
 62
30
  6
HS_Dashed
290
1
370
20
390
0
  0
LAYER
  5
2C
100
AcDbSymbolTableRecord
100
AcDbLayerTableRecord
  2
Drain
 70
0
 62
140
  6
HS_Hidden
290
1
370
20
390
0
  0
LAYER
  5
2D
100
AcDbSymbolTableRecord
100
AcDbLayerTableRecord
  2
Working
 70
0
 62
70
  6
HS_Solid
290
1
370
20
390
0
  0
ENDTAB
  0
TABLE
  2
VPORT
  5
6A
100
AcDbSymbolTable
  0
VPORT
  5
6C
100
AcDbSymbolTableRecord
100
AcDbViewportTableRecord
  2
*ACTIVE
 70
0
 10
0
 20
0
 11
1
 21
1
 12
6
 22
20.25
 32
0
 13
0
 23
0
 14
1
 24
1
 15
1
 25
1
 16
0
 26
0
 36
1
 17
0
 27
0
 37
0
 40
89.5
 41
1.20670391061453
 42
50
 43
0
 44
0
 50
0
 51
0
 71
0
 72
100
 73
1
 74
1
 75
0
 76
0
 77
0
 78
0
  0
ENDTAB
  0
TABLE
  2
VIEW
  5
6D
100
AcDbSymbolTable
  0
ENDTAB
  0
TABLE
  2
UCS
  5
6E
100
AcDbSymbolTable
  0
ENDTAB
  0
TABLE
  2
DIMSTYLE
  5
4
100
AcDbSymbolTable
 70
1
100
AcDbDimStyleTable
 71
0
  0
DIMSTYLE
105
B
100
AcDbSymbolTableRecord
100
AcDbDimStyleTableRecord
  2
STANDARD
 70
0
  3

 40
1
 41
0.18
 42
0.0625
 44
0.18
 47
0
 48
0
 73
1
 74
1
 75
0
 76
0
 77
0
140
0.18
141
0.09
144
1
147
0.0625
173
0
174
0
176
0
177
0
178
0
277
2
278
46
281
0
282
0
271
4
340
A
371
-1
372
-1
  0
ENDTAB
  0
ENDSEC
  0
SECTION
  2
BLOCKS
  0
BLOCK
  5
6F
100
AcDbEntity
  8
0
100
AcDbBlockBegin
  2
*MODEL_SPACE
 70
0
 10
0
 20
0
  0
ENDBLK
  5
70
100
AcDbEntity
  8
0
100
AcDbBlockEnd
  0
BLOCK
  5
71
100
AcDbEntity
  8
0
100
AcDbBlockBegin
  2
*PAPER_SPACE
 70
0
 10
0
 20
0
  0
ENDBLK
  5
72
100
AcDbEntity
  8
0
100
AcDbBlockEnd
  0
BLOCK
  5
F
100
AcDbEntity
  8
0
100
AcDbBlockBegin
  2
_CLOSEDFILLED
 70
0
 10
0
 20
0
 30
0
  3
_CLOSEDFILLED
  1

  0
SOLID
  5
C
100
AcDbEntity
  8
0
100
AcDbTrace
370
-2
 62
0
 10
-1
 20
0.166666666666667
 30
0
 11
0
 21
0
 31
0
 12
-1
 22
0.166666666666667
 32
0
 13
-1
 23
-0.166666666666667
 33
0
  0
LINE
  5
D
100
AcDbEntity
  8
0
100
AcDbLine
370
-2
 62
0
 10
-1
 20
0
 30
0
 11
-2
 21
0
 31
0
  0
ENDBLK
  5
73
100
AcDbEntity
  8
0
100
AcDbBlockEnd
  0
ENDSEC
  0
SECTION
  2
ENTITIES
  0
SOLID
  5
74
100
AcDbEntity
  8
HS_Symbol
100
AcDbTrace
370
-1
  6
HS_Solid
 10
-16.0000001311342
 20
49
 30
0
 11
-17.4999966504696
 21
45.9999998688661
 31
0
 12
-14.5000033495304
 22
46
 32
0
 13
-14.5000033495304
 23
46
 33
0
  0
LINE
  5
75
100
AcDbEntity
  8
HS_Symbol
100
AcDbLine
370
-1
 10
-21.8094749716314
 20
41.4999998153371
 30
0
 11
-25
 21
41.5
 31
0
  0
LINE
  5
76
100
AcDbEntity
  8
HS_Symbol
100
AcDbLine
370
-1
 10
-21.8094750669909
 20
44.4999998153371
 30
0
 11
-25
 21
44.5
 31
0
  0
CIRCLE
  5
77
100
AcDbEntity
  8
HS_Symbol
100
AcDbCircle
370
-1
 10
-16
 20
43
 30
0
 40
6
  0
LINE
  5
78
100
AcDbEntity
  8
HS_Symbol
100
AcDbLine
370
-1
 10
-16
 20
43
 30
0
 11
-31.5857864376269
 21
58.5857864376269
 31
0
  0
SOLID
  5
79
100
AcDbEntity
  8
HS_Symbol
100
AcDbTrace
370
-1
  6
HS_Solid
 10
-31.9647238195899
 20
58.2068490556639
 30
0
 11
-31.2068490556639
 21
58.9647238195899
 31
0
 12
-33
 22
60
 32
0
 13
-33
 23
60
 33
0
  0
LINE
  5
7A
100
AcDbEntity
  8
HS_Symbol
100
AcDbLine
370
-1
 10
-25
 20
44.5
 30
0
 11
-48
 21
44.5
 31
0
  0
LINE
  5
7B
100
AcDbEntity
  8
HS_Symbol
100
AcDbLine
370
-1
 10
-25
 20
41.5
 30
0
 11
-48
 21
41.5
 31
0
  0
ARC
  5
7C
100
AcDbEntity
  8
HS_Symbol
100
AcDbCircle
370
-1
  6
HS_Solid
 10
-53.8375
 20
43.1
 30
0
 40
9.03750000000001
100
AcDbArc
 50
330.137165643725
 51
29.862834356275
  0
LINE
  5
7D
100
AcDbEntity
  8
HS_Symbol
100
AcDbLine
370
-1
  6
HS_Solid
 10
-45.9
 20
47.4
 30
0
 11
-45.1055728090001
 21
45.8111456180002
 31
0
  0
SOLID
  5
7E
100
AcDbEntity
  8
HS_Symbol
100
AcDbTrace
370
-1
  6
HS_Solid
 10
-45.5848948960338
 20
45.5714845744833
 30
0
 11
-44.6262507219664
 21
46.050806661517
 31
0
 12
-46
 22
47.6
 32
0
 13
-46
 23
47.6
 33
0
  0
LWPOLYLINE
  5
7F
100
AcDbEntity
  8
HS_Symbol
100
AcDbPolyline
370
-1
 38
0
 90
4
 70
1
 10
-36
 20
33
 10
-28
 20
33
 10
-28
 20
35
 10
-36
 20
35
  0
LINE
  5
80
100
AcDbEntity
  8
HS_Symbol
100
AcDbLine
370
-1
 10
-33
 20
35
 30
0
 11
-33
 21
60
 31
0
  0
LINE
  5
81
100
AcDbEntity
  8
HS_Symbol
100
AcDbLine
370
-1
 10
-31
 20
35
 30
0
 11
-31
 21
58
 31
0
  0
LINE
  5
82
100
AcDbEntity
  8
HS_Symbol
100
AcDbLine
370
-1
 10
-28
 20
17
 30
0
 11
-36
 21
19
 31
0
  0
LINE
  5
83
100
AcDbEntity
  8
HS_Symbol
100
AcDbLine
370
-1
 10
-36
 20
19
 30
0
 11
-28
 21
21
 31
0
  0
LINE
  5
84
100
AcDbEntity
  8
HS_Symbol
100
AcDbLine
370
-1
 10
-28
 20
21
 30
0
 11
-36
 21
23
 31
0
  0
LINE
  5
85
100
AcDbEntity
  8
HS_Symbol
100
AcDbLine
370
-1
 10
-36
 20
23
 30
0
 11
-28
 21
25
 31
0
  0
LINE
  5
86
100
AcDbEntity
  8
HS_Symbol
100
AcDbLine
370
-1
 10
-28
 20
25
 30
0
 11
-36
 21
27
 31
0
  0
LINE
  5
87
100
AcDbEntity
  8
HS_Symbol
100
AcDbLine
370
-1
 10
-36
 20
27
 30
0
 11
-28
 21
29
 31
0
  0
LINE
  5
88
100
AcDbEntity
  8
HS_Symbol
100
AcDbLine
370
-1
 10
-34
 20
37
 30
0
 11
-36
 21
37
 31
0
  0
LINE
  5
89
100
AcDbEntity
  8
HS_Symbol
100
AcDbLine
370
-1
 10
-36
 20
37
 30
0
 11
-36
 21
17
 31
0
  0
LINE
  5
8A
100
AcDbEntity
  8
HS_Symbol
100
AcDbLine
370
-1
 10
-36
 20
17
 30
0
 11
-28
 21
17
 31
0
  0
LINE
  5
8B
100
AcDbEntity
  8
HS_Symbol
100
AcDbLine
370
-1
 10
-28
 20
17
 30
0
 11
-28
 21
37
 31
0
  0
LINE
  5
8C
100
AcDbEntity
  8
HS_Symbol
100
AcDbLine
370
-1
 10
-28
 20
37
 30
0
 11
-30
 21
37
 31
0
  0
LINE
  5
8D
100
AcDbEntity
  8
HS_Symbol
100
AcDbLine
370
-1
 10
-28
 20
29
 30
0
 11
-36
 21
31
 31
0
  0
LINE
  5
8E
100
AcDbEntity
  8
HS_Symbol
100
AcDbLine
370
-1
 10
-36
 20
31
 30
0
 11
-28
 21
33
 31
0
  0
LWPOLYLINE
  5
8F
100
AcDbEntity
  8
HS_Symbol
100
AcDbPolyline
370
-1
 38
0
 90
4
 70
1
 10
-4
 20
1
 10
4
 20
1
 10
4
 20
3
 10
-4
 20
3
  0
LINE
  5
90
100
AcDbEntity
  8
HS_Symbol
100
AcDbLine
370
-1
 10
-1
 20
3
 30
0
 11
-1
 21
28
 31
0
  0
LINE
  5
91
100
AcDbEntity
  8
HS_Symbol
100
AcDbLine
370
-1
 10
1
 20
3
 30
0
 11
1
 21
26
 31
0
  0
LINE
  5
92
100
AcDbEntity
  8
HS_Symbol
100
AcDbLine
370
-1
 10
-2
 20
17
 30
0
 11
-4
 21
17
 31
0
  0
LINE
  5
93
100
AcDbEntity
  8
HS_Symbol
100
AcDbLine
370
-1
 10
-4
 20
17
 30
0
 11
-4
 21
-3
 31
0
  0
LINE
  5
94
100
AcDbEntity
  8
HS_Symbol
100
AcDbLine
370
-1
 10
-4
 20
-3
 30
0
 11
4
 21
-3
 31
0
  0
LINE
  5
95
100
AcDbEntity
  8
HS_Symbol
100
AcDbLine
370
-1
 10
4
 20
-3
 30
0
 11
4
 21
17
 31
0
  0
LINE
  5
96
100
AcDbEntity
  8
HS_Symbol
100
AcDbLine
370
-1
 10
4
 20
17
 30
0
 11
2
 21
17
 31
0
  0
LINE
  5
97
100
AcDbEntity
  8
HS_Symbol
100
AcDbLine
370
-1
 10
-16
 20
43
 30
0
 11
-0.414213562373095
 21
27.4142135623731
 31
0
  0
SOLID
  5
98
100
AcDbEntity
  8
HS_Symbol
100
AcDbTrace
370
-1
  6
HS_Solid
 10
-0.0352761804100823
 20
27.7931509443361
 30
0
 11
-0.793150944336105
 21
27.0352761804101
 31
0
 12
1
 22
26
 32
0
 13
1
 23
26
 33
0
  0
TEXT
  5
99
100
AcDbEntity
  8
HS_Port
100
AcDbText
370
-1
 10
-14.9
 20
69
 30
0
 40
2
  1
OUT
 50
0
 41
1
 51
0
  7
TextStyle_IPort
 71
0
 72
0
 11
-14.9
 21
69
 31
0
100
AcDbText
 73
2
  0
CIRCLE
  5
9A
100
AcDbEntity
  8
HS_Symbol
100
AcDbCircle
370
-1
 10
-16
 20
65
 30
0
 40
1
  0
TEXT
  5
9B
100
AcDbEntity
  8
HS_Port
100
AcDbText
370
-1
 10
-13.4
 20
-27
 30
0
 40
2
  1
IN
 50
0
 41
1
 51
0
  7
TextStyle_IPort
 71
0
 72
0
 11
-13.4
 21
-27
 31
0
100
AcDbText
 73
2
  0
CIRCLE
  5
9C
100
AcDbEntity
  8
HS_Symbol
100
AcDbCircle
370
-1
 10
-16
 20
-23
 30
0
 40
1
  0
TEXT
  5
9D
100
AcDbEntity
  8
HS_Port
100
AcDbText
370
-1
 10
2.2
 20
-27
 30
0
 40
2
  1
D1
 50
0
 41
1
 51
0
  7
TextStyle_IPort
 71
0
 72
0
 11
2.2
 21
-27
 31
0
100
AcDbText
 73
2
  0
CIRCLE
  5
9E
100
AcDbEntity
  8
HS_Symbol
100
AcDbCircle
370
-1
 10
0
 20
-23
 30
0
 40
1
  0
LINE
  5
9F
100
AcDbEntity
  8
HS_Line
100
AcDbLine
370
-1
 10
-1.5
 20
-24.5
 30
0
 11
1.5
 21
-21.5
 31
0
  0
LINE
  5
A0
100
AcDbEntity
  8
HS_Line
100
AcDbLine
370
-1
 10
1.5
 20
-24.5
 30
0
 11
-1.5
 21
-21.5
 31
0
  0
TEXT
  5
A1
100
AcDbEntity
  8
HS_Port
100
AcDbText
370
-1
 10
14.2
 20
-27
 30
0
 40
2
  1
D2
 50
0
 41
1
 51
0
  7
TextStyle_IPort
 71
0
 72
0
 11
14.2
 21
-27
 31
0
100
AcDbText
 73
2
  0
CIRCLE
  5
A2
100
AcDbEntity
  8
HS_Symbol
100
AcDbCircle
370
-1
 10
12
 20
-23
 30
0
 40
1
  0
LINE
  5
A3
100
AcDbEntity
  8
HS_Symbol
100
AcDbLine
370
-1
 10
44
 20
-1
 30
0
 11
50
 21
-1
 31
0
  0
SOLID
  5
A4
100
AcDbEntity
  8
HS_Symbol
100
AcDbTrace
370
-1
  6
HS_Solid
 10
50
 20
-0.464101615137755
 30
0
 11
50
 21
-1.53589838486225
 31
0
 12
52
 22
-1
 32
0
 13
52
 23
-1
 33
0
  0
LINE
  5
A5
100
AcDbEntity
  8
HS_Symbol
100
AcDbLine
370
-1
 10
52
 20
11
 30
0
 11
45.7888543819998
 21
7.89442719099991
 31
0
  0
SOLID
  5
A6
100
AcDbEntity
  8
HS_Symbol
100
AcDbTrace
370
-1
  6
HS_Solid
 10
46.0285154255167
 20
7.41510510396618
 30
0
 11
45.549193338483
 21
8.37374927803365
 31
0
 12
44
 22
7
 32
0
 13
44
 23
7
 33
0
  0
LWPOLYLINE
  5
A7
100
AcDbEntity
  8
HS_Symbol
100
AcDbPolyline
370
-1
 38
0
 90
4
 70
1
 10
52
 20
13
 10
44
 20
13
 10
44
 20
-3
 10
52
 20
-3
  0
LINE
  5
A8
100
AcDbEntity
  8
HS_Symbol
100
AcDbLine
370
-1
 10
52
 20
5
 30
0
 11
44
 21
5
 31
0
  0
LINE
  5
A9
100
AcDbEntity
  8
HS_Symbol
100
AcDbLine
370
-1
 10
43
 20
13
 30
0
 11
43
 21
-3
 31
0
  0
LINE
  5
AA
100
AcDbEntity
  8
HS_Symbol
100
AcDbLine
370
-1
 10
53
 20
-3
 30
0
 11
53
 21
13
 31
0
  0
LWPOLYLINE
  5
AB
100
AcDbEntity
  8
HS_Symbol
100
AcDbPolyline
370
-1
 38
0
 90
8
 70
0
 10
46
 20
-3
 10
48
 20
-3.41666666666667
 10
44
 20
-4.25
 10
48
 20
-5.08333333333333
 10
44
 20
-5.91666666666667
 10
48
 20
-6.75
 10
44
 20
-7.58333333333333
 10
46
 20
-8
  0
LINE
  5
AC
100
AcDbEntity
  8
HS_Symbol
100
AcDbLine
370
-1
 10
52
 20
7
 30
0
 11
50
 21
7
 31
0
  0
LINE
  5
AD
100
AcDbEntity
  8
HS_Symbol
100
AcDbLine
370
-1
 10
50
 20
6
 30
0
 11
50
 21
8
 31
0
  0
LINE
  5
AE
100
AcDbEntity
  8
HS_Symbol
100
AcDbLine
370
-1
 10
52
 20
3
 30
0
 11
50
 21
3
 31
0
  0
LINE
  5
AF
100
AcDbEntity
  8
HS_Symbol
100
AcDbLine
370
-1
 10
50
 20
2
 30
0
 11
50
 21
4
 31
0
  0
LINE
  5
B0
100
AcDbEntity
  8
HS_Symbol
100
AcDbLine
370
-1
 10
41
 20
-4
 30
0
 11
49.0843474295577
 21
-6.42530422886731
 31
0
  0
SOLID
  5
B1
100
AcDbEntity
  8
HS_Symbol
100
AcDbTrace
370
-1
  6
HS_Solid
 10
49.2383366973263
 20
-5.91200666963869
 30
0
 11
48.9303581617891
 21
-6.93860178809593
 31
0
 12
51
 22
-7
 32
0
 13
51
 23
-7
 33
0
  0
LINE
  5
B2
100
AcDbEntity
  8
HS_Connection_Line
100
AcDbLine
370
-1
 10
-16
 20
37
 30
0
 11
-16
 21
-22
 31
0
  0
LINE
  5
B3
100
AcDbEntity
  8
HS_Connection_Line
100
AcDbLine
370
-1
 10
-16
 20
64
 30
0
 11
-16
 21
57
 31
0
  0
LINE
  5
B4
100
AcDbEntity
  8
HS_Connection_Line
100
AcDbLine
370
-1
  6
HS_Hidden
 10
4
 20
-1
 30
0
 11
12
 21
-1
 31
0
  0
LINE
  5
B5
100
AcDbEntity
  8
HS_Connection_Line
100
AcDbLine
370
-1
 10
12
 20
-22
 30
0
 11
12
 21
-19
 31
0
  0
CIRCLE
  5
B6
100
AcDbEntity
  8
HS_Connection_Line
100
AcDbCircle
370
-1
  6
HS_Solid
 10
12
 20
-19
 30
0
 40
0.8
  0
LWPOLYLINE
  5
B7
100
AcDbEntity
  8
HS_Connection_Line
100
AcDbPolyline
  6
HS_Solid
 38
0
 90
34
 70
0
 10
11.6335017221673
 20
-18.2888888888889
 10
12.3664982778327
 20
-18.2888888888889
 10
11.4971685111562
 20
-18.3777777777778
 10
12.5028314888438
 20
-18.3777777777778
 10
11.4037152060001
 20
-18.4666666666667
 10
12.5962847939999
 20
-18.4666666666667
 10
11.3348164645735
 20
-18.5555555555556
 10
12.6651835354265
 20
-18.5555555555556
 10
11.2833548668179
 20
-18.6444444444444
 10
12.7166451331821
 20
-18.6444444444444
 10
11.2457527667344
 20
-18.7333333333333
 10
12.7542472332657
 20
-18.7333333333333
 10
11.2200031655651
 20
-18.8222222222222
 10
12.7799968344349
 20
-18.8222222222222
 10
11.2049536080001
 20
-18.9111111111111
 10
12.7950463919999
 20
-18.9111111111111
 10
11.2
 20
-19
 10
12.8
 20
-19
 10
11.2049536080001
 20
-19.0888888888889
 10
12.7950463919999
 20
-19.0888888888889
 10
11.2200031655651
 20
-19.1777777777778
 10
12.7799968344349
 20
-19.1777777777778
 10
11.2457527667344
 20
-19.2666666666667
 10
12.7542472332657
 20
-19.2666666666667
 10
11.2833548668179
 20
-19.3555555555556
 10
12.7166451331821
 20
-19.3555555555556
 10
11.3348164645735
 20
-19.4444444444444
 10
12.6651835354265
 20
-19.4444444444444
 10
11.4037152060001
 20
-19.5333333333333
 10
12.5962847939999
 20
-19.5333333333333
 10
11.4971685111562
 20
-19.6222222222222
 10
12.5028314888438
 20
-19.6222222222222
 10
11.6335017221673
 20
-19.7111111111111
 10
12.3664982778327
 20
-19.7111111111111
  0
LINE
  5
B8
100
AcDbEntity
  8
HS_Connection_Line
100
AcDbLine
370
-1
 10
12
 20
-19
 30
0
 11
12
 21
-19
 31
0
  0
CIRCLE
  5
B9
100
AcDbEntity
  8
HS_Connection_Line
100
AcDbCircle
370
-1
  6
HS_Solid
 10
0
 20
-19
 30
0
 40
0.8
  0
LWPOLYLINE
  5
BA
100
AcDbEntity
  8
HS_Connection_Line
100
AcDbPolyline
  6
HS_Solid
 38
0
 90
34
 70
0
 10
-0.366498277832681
 20
-18.2888888888889
 10
0.366498277832681
 20
-18.2888888888889
 10
-0.502831488843767
 20
-18.3777777777778
 10
0.502831488843767
 20
-18.3777777777778
 10
-0.596284793999944
 20
-18.4666666666667
 10
0.596284793999944
 20
-18.4666666666667
 10
-0.665183535426479
 20
-18.5555555555556
 10
0.665183535426479
 20
-18.5555555555556
 10
-0.716645133182093
 20
-18.6444444444444
 10
0.716645133182093
 20
-18.6444444444444
 10
-0.754247233265651
 20
-18.7333333333333
 10
0.754247233265651
 20
-18.7333333333333
 10
-0.779996834434855
 20
-18.8222222222222
 10
0.779996834434855
 20
-18.8222222222222
 10
-0.795046391999925
 20
-18.9111111111111
 10
0.795046391999925
 20
-18.9111111111111
 10
-0.8
 20
-19
 10
0.8
 20
-19
 10
-0.795046391999925
 20
-19.0888888888889
 10
0.795046391999925
 20
-19.0888888888889
 10
-0.779996834434855
 20
-19.1777777777778
 10
0.779996834434855
 20
-19.1777777777778
 10
-0.754247233265651
 20
-19.2666666666667
 10
0.754247233265651
 20
-19.2666666666667
 10
-0.716645133182093
 20
-19.3555555555556
 10
0.716645133182093
 20
-19.3555555555556
 10
-0.665183535426479
 20
-19.4444444444444
 10
0.665183535426479
 20
-19.4444444444444
 10
-0.596284793999944
 20
-19.5333333333333
 10
0.596284793999944
 20
-19.5333333333333
 10
-0.502831488843767
 20
-19.6222222222222
 10
0.502831488843767
 20
-19.6222222222222
 10
-0.366498277832681
 20
-19.7111111111111
 10
0.366498277832681
 20
-19.7111111111111
  0
LINE
  5
BB
100
AcDbEntity
  8
HS_Connection_Line
100
AcDbLine
370
-1
 10
0
 20
-19
 30
0
 11
0
 21
-22
 31
0
  0
LINE
  5
BC
100
AcDbEntity
  8
HS_Connection_Line
100
AcDbLine
370
-1
  6
HS_Hidden
 10
-11.8
 20
38.7
 30
0
 11
-11.8
 21
-19
 31
0
  0
LINE
  5
BD
100
AcDbEntity
  8
HS_Connection_Line
100
AcDbLine
370
-1
  6
HS_Hidden
 10
-11.8
 20
-19
 30
0
 11
0
 21
-19
 31
0
  0
CIRCLE
  5
BE
100
AcDbEntity
  8
HS_Connection_Line
100
AcDbCircle
370
-1
  6
HS_Solid
 10
12
 20
-19
 30
0
 40
0.8
  0
LWPOLYLINE
  5
BF
100
AcDbEntity
  8
HS_Connection_Line
100
AcDbPolyline
  6
HS_Solid
 38
0
 90
34
 70
0
 10
11.6335017221673
 20
-18.2888888888889
 10
12.3664982778327
 20
-18.2888888888889
 10
11.4971685111562
 20
-18.3777777777778
 10
12.5028314888438
 20
-18.3777777777778
 10
11.4037152060001
 20
-18.4666666666667
 10
12.5962847939999
 20
-18.4666666666667
 10
11.3348164645735
 20
-18.5555555555556
 10
12.6651835354265
 20
-18.5555555555556
 10
11.2833548668179
 20
-18.6444444444444
 10
12.7166451331821
 20
-18.6444444444444
 10
11.2457527667344
 20
-18.7333333333333
 10
12.7542472332657
 20
-18.7333333333333
 10
11.2200031655651
 20
-18.8222222222222
 10
12.7799968344349
 20
-18.8222222222222
 10
11.2049536080001
 20
-18.9111111111111
 10
12.7950463919999
 20
-18.9111111111111
 10
11.2
 20
-19
 10
12.8
 20
-19
 10
11.2049536080001
 20
-19.0888888888889
 10
12.7950463919999
 20
-19.0888888888889
 10
11.2200031655651
 20
-19.1777777777778
 10
12.7799968344349
 20
-19.1777777777778
 10
11.2457527667344
 20
-19.2666666666667
 10
12.7542472332657
 20
-19.2666666666667
 10
11.2833548668179
 20
-19.3555555555556
 10
12.7166451331821
 20
-19.3555555555556
 10
11.3348164645735
 20
-19.4444444444444
 10
12.6651835354265
 20
-19.4444444444444
 10
11.4037152060001
 20
-19.5333333333333
 10
12.5962847939999
 20
-19.5333333333333
 10
11.4971685111562
 20
-19.6222222222222
 10
12.5028314888438
 20
-19.6222222222222
 10
11.6335017221673
 20
-19.7111111111111
 10
12.3664982778327
 20
-19.7111111111111
  0
LINE
  5
C0
100
AcDbEntity
  8
HS_Connection_Line
100
AcDbLine
370
-1
  6
HS_Hidden
 10
12
 20
-19
 30
0
 11
0
 21
-19
 31
0
  0
LINE
  5
C1
100
AcDbEntity
  8
HS_Connection_Line
100
AcDbLine
370
-1
  6
HS_Hidden
 10
12
 20
-19
 30
0
 11
26
 21
-19
 31
0
  0
CIRCLE
  5
C2
100
AcDbEntity
  8
HS_Connection_Line
100
AcDbCircle
370
-1
  6
HS_Solid
 10
-16
 20
57
 30
0
 40
0.8
  0
LWPOLYLINE
  5
C3
100
AcDbEntity
  8
HS_Connection_Line
100
AcDbPolyline
  6
HS_Solid
 38
0
 90
34
 70
0
 10
-16.3664982778327
 20
57.7111111111111
 10
-15.6335017221673
 20
57.7111111111111
 10
-16.5028314888438
 20
57.6222222222222
 10
-15.4971685111562
 20
57.6222222222222
 10
-16.5962847939999
 20
57.5333333333333
 10
-15.4037152060001
 20
57.5333333333333
 10
-16.6651835354265
 20
57.4444444444445
 10
-15.3348164645735
 20
57.4444444444445
 10
-16.7166451331821
 20
57.3555555555556
 10
-15.2833548668179
 20
57.3555555555556
 10
-16.7542472332657
 20
57.2666666666667
 10
-15.2457527667344
 20
57.2666666666667
 10
-16.7799968344349
 20
57.1777777777778
 10
-15.2200031655651
 20
57.1777777777778
 10
-16.7950463919999
 20
57.0888888888889
 10
-15.2049536080001
 20
57.0888888888889
 10
-16.8
 20
57
 10
-15.2
 20
57
 10
-16.7950463919999
 20
56.9111111111111
 10
-15.2049536080001
 20
56.9111111111111
 10
-16.7799968344349
 20
56.8222222222222
 10
-15.2200031655651
 20
56.8222222222222
 10
-16.7542472332657
 20
56.7333333333333
 10
-15.2457527667344
 20
56.7333333333333
 10
-16.7166451331821
 20
56.6444444444444
 10
-15.2833548668179
 20
56.6444444444444
 10
-16.6651835354265
 20
56.5555555555556
 10
-15.3348164645735
 20
56.5555555555556
 10
-16.5962847939999
 20
56.4666666666667
 10
-15.4037152060001
 20
56.4666666666667
 10
-16.5028314888438
 20
56.3777777777778
 10
-15.4971685111562
 20
56.3777777777778
 10
-16.3664982778327
 20
56.2888888888889
 10
-15.6335017221673
 20
56.2888888888889
  0
LINE
  5
C4
100
AcDbEntity
  8
HS_Connection_Line
100
AcDbLine
370
-1
 10
-16
 20
57
 30
0
 11
-16
 21
49
 31
0
  0
LINE
  5
C5
100
AcDbEntity
  8
HS_Connection_Line
100
AcDbLine
370
-1
 10
-16
 20
57
 30
0
 11
-16
 21
57
 31
0
  0
LINE
  5
C6
100
AcDbEntity
  8
HS_Connection_Line
100
AcDbLine
370
-1
  6
HS_Hidden
 10
52
 20
3
 30
0
 11
56
 21
3
 31
0
  0
LINE
  5
C7
100
AcDbEntity
  8
HS_Connection_Line
100
AcDbLine
370
-1
  6
HS_Hidden
 10
56
 20
3
 30
0
 11
56
 21
21
 31
0
  0
LINE
  5
C8
100
AcDbEntity
  8
HS_Connection_Line
100
AcDbLine
370
-1
  6
HS_Hidden
 10
56
 20
21
 30
0
 11
48
 21
21
 31
0
  0
LINE
  5
C9
100
AcDbEntity
  8
HS_IBorder
100
AcDbLine
370
-1
 10
-40
 20
-23
 30
0
 11
-40
 21
65
 31
0
  0
LINE
  5
CA
100
AcDbEntity
  8
HS_IBorder
100
AcDbLine
370
-1
 10
-40
 20
65
 30
0
 11
-17
 21
65
 31
0
  0
LINE
  5
CB
100
AcDbEntity
  8
HS_IBorder
100
AcDbLine
370
-1
 10
-15
 20
65
 30
0
 11
38
 21
65
 31
0
  0
LINE
  5
CC
100
AcDbEntity
  8
HS_IBorder
100
AcDbLine
370
-1
 10
40
 20
65
 30
0
 11
60
 21
65
 31
0
  0
LINE
  5
CD
100
AcDbEntity
  8
HS_IBorder
100
AcDbLine
370
-1
 10
60
 20
-23
 30
0
 11
60
 21
65
 31
0
  0
LINE
  5
CE
100
AcDbEntity
  8
HS_IBorder
100
AcDbLine
370
-1
 10
-40
 20
-23
 30
0
 11
-17
 21
-23
 31
0
  0
LINE
  5
CF
100
AcDbEntity
  8
HS_IBorder
100
AcDbLine
370
-1
 10
-15
 20
-23
 30
0
 11
-1
 21
-23
 31
0
  0
LINE
  5
D0
100
AcDbEntity
  8
HS_IBorder
100
AcDbLine
370
-1
 10
1
 20
-23
 30
0
 11
11
 21
-23
 31
0
  0
LINE
  5
D1
100
AcDbEntity
  8
HS_IBorder
100
AcDbLine
370
-1
 10
13
 20
-23
 30
0
 11
60
 21
-23
 31
0
  0
LINE
  5
D2
100
AcDbEntity
  8
HS_Symbol
100
AcDbLine
370
-1
 10
20
 20
-1
 30
0
 11
26
 21
-1
 31
0
  0
SOLID
  5
D3
100
AcDbEntity
  8
HS_Symbol
100
AcDbTrace
370
-1
  6
HS_Solid
 10
26
 20
-0.464101615137755
 30
0
 11
26
 21
-1.53589838486225
 31
0
 12
28
 22
-1
 32
0
 13
28
 23
-1
 33
0
  0
LINE
  5
D4
100
AcDbEntity
  8
HS_Symbol
100
AcDbLine
370
-1
 10
28
 20
11
 30
0
 11
21.7888543819998
 21
7.89442719099991
 31
0
  0
SOLID
  5
D5
100
AcDbEntity
  8
HS_Symbol
100
AcDbTrace
370
-1
  6
HS_Solid
 10
22.0285154255167
 20
7.41510510396618
 30
0
 11
21.549193338483
 21
8.37374927803365
 31
0
 12
20
 22
7
 32
0
 13
20
 23
7
 33
0
  0
LWPOLYLINE
  5
D6
100
AcDbEntity
  8
HS_Symbol
100
AcDbPolyline
370
-1
 38
0
 90
4
 70
1
 10
28
 20
13
 10
20
 20
13
 10
20
 20
-3
 10
28
 20
-3
  0
LINE
  5
D7
100
AcDbEntity
  8
HS_Symbol
100
AcDbLine
370
-1
 10
28
 20
5
 30
0
 11
20
 21
5
 31
0
  0
LINE
  5
D8
100
AcDbEntity
  8
HS_Symbol
100
AcDbLine
370
-1
 10
19
 20
13
 30
0
 11
19
 21
-3
 31
0
  0
LINE
  5
D9
100
AcDbEntity
  8
HS_Symbol
100
AcDbLine
370
-1
 10
29
 20
-3
 30
0
 11
29
 21
13
 31
0
  0
LWPOLYLINE
  5
DA
100
AcDbEntity
  8
HS_Symbol
100
AcDbPolyline
370
-1
 38
0
 90
8
 70
0
 10
22
 20
-3
 10
24
 20
-3.41666666666667
 10
20
 20
-4.25
 10
24
 20
-5.08333333333333
 10
20
 20
-5.91666666666667
 10
24
 20
-6.75
 10
20
 20
-7.58333333333333
 10
22
 20
-8
  0
LINE
  5
DB
100
AcDbEntity
  8
HS_Symbol
100
AcDbLine
370
-1
 10
28
 20
7
 30
0
 11
26
 21
7
 31
0
  0
LINE
  5
DC
100
AcDbEntity
  8
HS_Symbol
100
AcDbLine
370
-1
 10
26
 20
6
 30
0
 11
26
 21
8
 31
0
  0
LINE
  5
DD
100
AcDbEntity
  8
HS_Symbol
100
AcDbLine
370
-1
 10
28
 20
3
 30
0
 11
26
 21
3
 31
0
  0
LINE
  5
DE
100
AcDbEntity
  8
HS_Symbol
100
AcDbLine
370
-1
 10
26
 20
2
 30
0
 11
26
 21
4
 31
0
  0
LINE
  5
DF
100
AcDbEntity
  8
HS_Symbol
100
AcDbLine
370
-1
 10
17
 20
-4
 30
0
 11
25.0843474295577
 21
-6.42530422886731
 31
0
  0
SOLID
  5
E0
100
AcDbEntity
  8
HS_Symbol
100
AcDbTrace
370
-1
  6
HS_Solid
 10
25.2383366973263
 20
-5.91200666963869
 30
0
 11
24.9303581617891
 21
-6.93860178809593
 31
0
 12
27
 22
-7
 32
0
 13
27
 23
-7
 33
0
  0
CIRCLE
  5
E1
100
AcDbEntity
  8
HS_Connection_Line
100
AcDbCircle
370
-1
  6
HS_Solid
 10
12
 20
-1
 30
0
 40
0.8
  0
LWPOLYLINE
  5
E2
100
AcDbEntity
  8
HS_Connection_Line
100
AcDbPolyline
  6
HS_Solid
 38
0
 90
34
 70
0
 10
11.6335017221673
 20
-0.288888888888889
 10
12.3664982778327
 20
-0.288888888888889
 10
11.4971685111562
 20
-0.377777777777778
 10
12.5028314888438
 20
-0.377777777777778
 10
11.4037152060001
 20
-0.466666666666667
 10
12.5962847939999
 20
-0.466666666666667
 10
11.3348164645735
 20
-0.555555555555556
 10
12.6651835354265
 20
-0.555555555555556
 10
11.2833548668179
 20
-0.644444444444444
 10
12.7166451331821
 20
-0.644444444444444
 10
11.2457527667344
 20
-0.733333333333333
 10
12.7542472332657
 20
-0.733333333333333
 10
11.2200031655651
 20
-0.822222222222222
 10
12.7799968344349
 20
-0.822222222222222
 10
11.2049536080001
 20
-0.911111111111111
 10
12.7950463919999
 20
-0.911111111111111
 10
11.2
 20
-1
 10
12.8
 20
-1
 10
11.2049536080001
 20
-1.08888888888889
 10
12.7950463919999
 20
-1.08888888888889
 10
11.2200031655651
 20
-1.17777777777778
 10
12.7799968344349
 20
-1.17777777777778
 10
11.2457527667344
 20
-1.26666666666667
 10
12.7542472332657
 20
-1.26666666666667
 10
11.2833548668179
 20
-1.35555555555556
 10
12.7166451331821
 20
-1.35555555555556
 10
11.3348164645735
 20
-1.44444444444444
 10
12.6651835354265
 20
-1.44444444444444
 10
11.4037152060001
 20
-1.53333333333333
 10
12.5962847939999
 20
-1.53333333333333
 10
11.4971685111562
 20
-1.62222222222222
 10
12.5028314888438
 20
-1.62222222222222
 10
11.6335017221673
 20
-1.71111111111111
 10
12.3664982778327
 20
-1.71111111111111
  0
LINE
  5
E3
100
AcDbEntity
  8
HS_Connection_Line
100
AcDbLine
370
-1
  6
HS_Hidden
 10
12
 20
-1
 30
0
 11
12
 21
-19
 31
0
  0
LINE
  5
E4
100
AcDbEntity
  8
HS_Connection_Line
100
AcDbLine
370
-1
  6
HS_Hidden
 10
20
 20
-1
 30
0
 11
12
 21
-1
 31
0
  0
LINE
  5
E5
100
AcDbEntity
  8
HS_Connection_Line
100
AcDbLine
370
-1
  6
HS_Hidden
 10
28
 20
-1
 30
0
 11
44
 21
-1
 31
0
  0
LINE
  5
E6
100
AcDbEntity
  8
HS_Connection_Line
100
AcDbLine
370
-1
  6
HS_Hidden
 10
28
 20
3
 30
0
 11
32
 21
3
 31
0
  0
LINE
  5
E7
100
AcDbEntity
  8
HS_Connection_Line
100
AcDbLine
370
-1
  6
HS_Hidden
 10
32
 20
3
 30
0
 11
32
 21
21
 31
0
  0
CIRCLE
  5
E8
100
AcDbEntity
  8
HS_Connection_Line
100
AcDbCircle
370
-1
  6
HS_Solid
 10
48
 20
21
 30
0
 40
0.8
  0
LWPOLYLINE
  5
E9
100
AcDbEntity
  8
HS_Connection_Line
100
AcDbPolyline
  6
HS_Solid
 38
0
 90
34
 70
0
 10
47.6335017221673
 20
21.7111111111111
 10
48.3664982778327
 20
21.7111111111111
 10
47.4971685111562
 20
21.6222222222222
 10
48.5028314888438
 20
21.6222222222222
 10
47.4037152060001
 20
21.5333333333333
 10
48.5962847939999
 20
21.5333333333333
 10
47.3348164645735
 20
21.4444444444444
 10
48.6651835354265
 20
21.4444444444444
 10
47.2833548668179
 20
21.3555555555556
 10
48.7166451331821
 20
21.3555555555556
 10
47.2457527667343
 20
21.2666666666667
 10
48.7542472332657
 20
21.2666666666667
 10
47.2200031655651
 20
21.1777777777778
 10
48.7799968344349
 20
21.1777777777778
 10
47.2049536080001
 20
21.0888888888889
 10
48.7950463919999
 20
21.0888888888889
 10
47.2
 20
21
 10
48.8
 20
21
 10
47.2049536080001
 20
20.9111111111111
 10
48.7950463919999
 20
20.9111111111111
 10
47.2200031655651
 20
20.8222222222222
 10
48.7799968344349
 20
20.8222222222222
 10
47.2457527667343
 20
20.7333333333333
 10
48.7542472332657
 20
20.7333333333333
 10
47.2833548668179
 20
20.6444444444444
 10
48.7166451331821
 20
20.6444444444444
 10
47.3348164645735
 20
20.5555555555556
 10
48.6651835354265
 20
20.5555555555556
 10
47.4037152060001
 20
20.4666666666667
 10
48.5962847939999
 20
20.4666666666667
 10
47.4971685111562
 20
20.3777777777778
 10
48.5028314888438
 20
20.3777777777778
 10
47.6335017221673
 20
20.2888888888889
 10
48.3664982778327
 20
20.2888888888889
  0
CIRCLE
  5
EA
100
AcDbEntity
  8
HS_Connection_Line
100
AcDbCircle
370
-1
  6
HS_Solid
 10
32
 20
21
 30
0
 40
0.8
  0
LWPOLYLINE
  5
EB
100
AcDbEntity
  8
HS_Connection_Line
100
AcDbPolyline
  6
HS_Solid
 38
0
 90
34
 70
0
 10
31.6335017221673
 20
21.7111111111111
 10
32.3664982778327
 20
21.7111111111111
 10
31.4971685111562
 20
21.6222222222222
 10
32.5028314888438
 20
21.6222222222222
 10
31.4037152060001
 20
21.5333333333333
 10
32.5962847939999
 20
21.5333333333333
 10
31.3348164645735
 20
21.4444444444444
 10
32.6651835354265
 20
21.4444444444444
 10
31.2833548668179
 20
21.3555555555556
 10
32.7166451331821
 20
21.3555555555556
 10
31.2457527667343
 20
21.2666666666667
 10
32.7542472332657
 20
21.2666666666667
 10
31.2200031655651
 20
21.1777777777778
 10
32.7799968344349
 20
21.1777777777778
 10
31.2049536080001
 20
21.0888888888889
 10
32.7950463919999
 20
21.0888888888889
 10
31.2
 20
21
 10
32.8
 20
21
 10
31.2049536080001
 20
20.9111111111111
 10
32.7950463919999
 20
20.9111111111111
 10
31.2200031655651
 20
20.8222222222222
 10
32.7799968344349
 20
20.8222222222222
 10
31.2457527667343
 20
20.7333333333333
 10
32.7542472332657
 20
20.7333333333333
 10
31.2833548668179
 20
20.6444444444444
 10
32.7166451331821
 20
20.6444444444444
 10
31.3348164645735
 20
20.5555555555556
 10
32.6651835354265
 20
20.5555555555556
 10
31.4037152060001
 20
20.4666666666667
 10
32.5962847939999
 20
20.4666666666667
 10
31.4971685111562
 20
20.3777777777778
 10
32.5028314888438
 20
20.3777777777778
 10
31.6335017221673
 20
20.2888888888889
 10
32.3664982778327
 20
20.2888888888889
  0
LINE
  5
EC
100
AcDbEntity
  8
HS_Connection_Line
100
AcDbLine
370
-1
  6
HS_Hidden
 10
48
 20
21
 30
0
 11
48
 21
13
 31
0
  0
LINE
  5
ED
100
AcDbEntity
  8
HS_Connection_Line
100
AcDbLine
370
-1
  6
HS_Hidden
 10
32
 20
21
 30
0
 11
24
 21
21
 31
0
  0
LINE
  5
EE
100
AcDbEntity
  8
HS_Connection_Line
100
AcDbLine
370
-1
  6
HS_Hidden
 10
48
 20
21
 30
0
 11
32
 21
21
 31
0
  0
CIRCLE
  5
EF
100
AcDbEntity
  8
HS_Connection_Line
100
AcDbCircle
370
-1
  6
HS_Solid
 10
-16
 20
57
 30
0
 40
0.8
  0
LWPOLYLINE
  5
F0
100
AcDbEntity
  8
HS_Connection_Line
100
AcDbPolyline
  6
HS_Solid
 38
0
 90
34
 70
0
 10
-16.3664982778327
 20
57.7111111111111
 10
-15.6335017221673
 20
57.7111111111111
 10
-16.5028314888438
 20
57.6222222222222
 10
-15.4971685111562
 20
57.6222222222222
 10
-16.5962847939999
 20
57.5333333333333
 10
-15.4037152060001
 20
57.5333333333333
 10
-16.6651835354265
 20
57.4444444444445
 10
-15.3348164645735
 20
57.4444444444445
 10
-16.7166451331821
 20
57.3555555555556
 10
-15.2833548668179
 20
57.3555555555556
 10
-16.7542472332657
 20
57.2666666666667
 10
-15.2457527667344
 20
57.2666666666667
 10
-16.7799968344349
 20
57.1777777777778
 10
-15.2200031655651
 20
57.1777777777778
 10
-16.7950463919999
 20
57.0888888888889
 10
-15.2049536080001
 20
57.0888888888889
 10
-16.8
 20
57
 10
-15.2
 20
57
 10
-16.7950463919999
 20
56.9111111111111
 10
-15.2049536080001
 20
56.9111111111111
 10
-16.7799968344349
 20
56.8222222222222
 10
-15.2200031655651
 20
56.8222222222222
 10
-16.7542472332657
 20
56.7333333333333
 10
-15.2457527667344
 20
56.7333333333333
 10
-16.7166451331821
 20
56.6444444444444
 10
-15.2833548668179
 20
56.6444444444444
 10
-16.6651835354265
 20
56.5555555555556
 10
-15.3348164645735
 20
56.5555555555556
 10
-16.5962847939999
 20
56.4666666666667
 10
-15.4037152060001
 20
56.4666666666667
 10
-16.5028314888438
 20
56.3777777777778
 10
-15.4971685111562
 20
56.3777777777778
 10
-16.3664982778327
 20
56.2888888888889
 10
-15.6335017221673
 20
56.2888888888889
  0
CIRCLE
  5
F1
100
AcDbEntity
  8
HS_Connection_Line
100
AcDbCircle
370
-1
  6
HS_Solid
 10
24
 20
21
 30
0
 40
0.8
  0
LWPOLYLINE
  5
F2
100
AcDbEntity
  8
HS_Connection_Line
100
AcDbPolyline
  6
HS_Solid
 38
0
 90
34
 70
0
 10
23.6335017221673
 20
21.7111111111111
 10
24.3664982778327
 20
21.7111111111111
 10
23.4971685111562
 20
21.6222222222222
 10
24.5028314888438
 20
21.6222222222222
 10
23.4037152060001
 20
21.5333333333333
 10
24.5962847939999
 20
21.5333333333333
 10
23.3348164645735
 20
21.4444444444444
 10
24.6651835354265
 20
21.4444444444444
 10
23.2833548668179
 20
21.3555555555556
 10
24.7166451331821
 20
21.3555555555556
 10
23.2457527667344
 20
21.2666666666667
 10
24.7542472332657
 20
21.2666666666667
 10
23.2200031655651
 20
21.1777777777778
 10
24.7799968344349
 20
21.1777777777778
 10
23.2049536080001
 20
21.0888888888889
 10
24.7950463919999
 20
21.0888888888889
 10
23.2
 20
21
 10
24.8
 20
21
 10
23.2049536080001
 20
20.9111111111111
 10
24.7950463919999
 20
20.9111111111111
 10
23.2200031655651
 20
20.8222222222222
 10
24.7799968344349
 20
20.8222222222222
 10
23.2457527667344
 20
20.7333333333333
 10
24.7542472332657
 20
20.7333333333333
 10
23.2833548668179
 20
20.6444444444444
 10
24.7166451331821
 20
20.6444444444444
 10
23.3348164645735
 20
20.5555555555556
 10
24.6651835354265
 20
20.5555555555556
 10
23.4037152060001
 20
20.4666666666667
 10
24.5962847939999
 20
20.4666666666667
 10
23.4971685111562
 20
20.3777777777778
 10
24.5028314888438
 20
20.3777777777778
 10
23.6335017221673
 20
20.2888888888889
 10
24.3664982778327
 20
20.2888888888889
  0
LINE
  5
F3
100
AcDbEntity
  8
HS_Connection_Line
100
AcDbLine
370
-1
  6
HS_Hidden
 10
-16
 20
57
 30
0
 11
-24
 21
57
 31
0
  0
LINE
  5
F4
100
AcDbEntity
  8
HS_Connection_Line
100
AcDbLine
370
-1
  6
HS_Hidden
 10
-24
 20
57
 30
0
 11
-24
 21
19
 31
0
  0
LINE
  5
F5
100
AcDbEntity
  8
HS_Connection_Line
100
AcDbLine
370
-1
  6
HS_Hidden
 10
-24
 20
19
 30
0
 11
-28
 21
19
 31
0
  0
LINE
  5
F6
100
AcDbEntity
  8
HS_Connection_Line
100
AcDbLine
370
-1
  6
HS_Hidden
 10
24
 20
21
 30
0
 11
24
 21
13
 31
0
  0
LINE
  5
F7
100
AcDbEntity
  8
HS_Connection_Line
100
AcDbLine
370
-1
  6
HS_Hidden
 10
-16
 20
57
 30
0
 11
24
 21
57
 31
0
  0
LINE
  5
F8
100
AcDbEntity
  8
HS_Connection_Line
100
AcDbLine
370
-1
  6
HS_Hidden
 10
24
 20
57
 30
0
 11
24
 21
21
 31
0
  0
LINE
  5
F9
100
AcDbEntity
  8
HS_Orifice
100
AcDbLine
370
-1
 10
26
 20
-13
 30
0
 11
26
 21
-17
 31
0
  0
CIRCLE
  5
FA
100
AcDbEntity
  8
HS_Orifice
100
AcDbCircle
370
-1
 10
26
 20
-15
 30
0
 40
2
  0
ARC
  5
FB
100
AcDbEntity
  8
HS_Orifice
100
AcDbCircle
370
-1
 10
28.3
 20
-15
 30
0
 40
1.5
100
AcDbArc
 50
138.189685462059
 51
221.810315253616
  0
ARC
  5
FC
100
AcDbEntity
  8
HS_Orifice
100
AcDbCircle
370
-1
 10
23.7
 20
-14.9999997989276
 30
0
 40
1.5
100
AcDbArc
 50
318.189679737427
 51
41.8103095289844
  0
LINE
  5
FD
100
AcDbEntity
  8
HS_Connection_Line
100
AcDbLine
370
-1
  6
HS_Hidden
 10
26
 20
-3
 30
0
 11
26
 21
-9
 31
0
  0
CIRCLE
  5
FE
100
AcDbEntity
  8
HS_Connection_Line
100
AcDbCircle
370
-1
  6
HS_Solid
 10
26
 20
-19
 30
0
 40
0.8
  0
LWPOLYLINE
  5
FF
100
AcDbEntity
  8
HS_Connection_Line
100
AcDbPolyline
  6
HS_Solid
 38
0
 90
34
 70
0
 10
25.6335017221673
 20
-18.2888888888889
 10
26.3664982778327
 20
-18.2888888888889
 10
25.4971685111562
 20
-18.3777777777778
 10
26.5028314888438
 20
-18.3777777777778
 10
25.4037152060001
 20
-18.4666666666667
 10
26.5962847939999
 20
-18.4666666666667
 10
25.3348164645735
 20
-18.5555555555556
 10
26.6651835354265
 20
-18.5555555555556
 10
25.2833548668179
 20
-18.6444444444444
 10
26.7166451331821
 20
-18.6444444444444
 10
25.2457527667344
 20
-18.7333333333333
 10
26.7542472332657
 20
-18.7333333333333
 10
25.2200031655651
 20
-18.8222222222222
 10
26.7799968344349
 20
-18.8222222222222
 10
25.2049536080001
 20
-18.9111111111111
 10
26.7950463919999
 20
-18.9111111111111
 10
25.2
 20
-19
 10
26.8
 20
-19
 10
25.2049536080001
 20
-19.0888888888889
 10
26.7950463919999
 20
-19.0888888888889
 10
25.2200031655651
 20
-19.1777777777778
 10
26.7799968344349
 20
-19.1777777777778
 10
25.2457527667344
 20
-19.2666666666667
 10
26.7542472332657
 20
-19.2666666666667
 10
25.2833548668179
 20
-19.3555555555556
 10
26.7166451331821
 20
-19.3555555555556
 10
25.3348164645735
 20
-19.4444444444444
 10
26.6651835354265
 20
-19.4444444444444
 10
25.4037152060001
 20
-19.5333333333333
 10
26.5962847939999
 20
-19.5333333333333
 10
25.4971685111562
 20
-19.6222222222222
 10
26.5028314888438
 20
-19.6222222222222
 10
25.6335017221673
 20
-19.7111111111111
 10
26.3664982778327
 20
-19.7111111111111
  0
LINE
  5
100
100
AcDbEntity
  8
HS_Connection_Line
100
AcDbLine
370
-1
  6
HS_Hidden
 10
26
 20
-19
 30
0
 11
56
 21
-19
 31
0
  0
LINE
  5
101
100
AcDbEntity
  8
HS_Connection_Line
100
AcDbLine
370
-1
  6
HS_Hidden
 10
56
 20
-19
 30
0
 11
56
 21
-1
 31
0
  0
LINE
  5
102
100
AcDbEntity
  8
HS_Connection_Line
100
AcDbLine
370
-1
  6
HS_Hidden
 10
56
 20
-1
 30
0
 11
52
 21
-1
 31
0
  0
LINE
  5
103
100
AcDbEntity
  8
HS_Connection_Line
100
AcDbLine
370
-1
  6
HS_Hidden
 10
26
 20
-17
 30
0
 11
26
 21
-19
 31
0
  0
TEXT
  5
104
100
AcDbEntity
  8
HS_Port
100
AcDbText
370
-1
 10
42.1
 20
69
 30
0
 40
2
  1
X
 50
0
 41
1
 51
0
  7
TextStyle_IPort
 71
0
 72
0
 11
42.1
 21
69
 31
0
100
AcDbText
 73
2
  0
CIRCLE
  5
105
100
AcDbEntity
  8
HS_Symbol
100
AcDbCircle
370
-1
 10
39
 20
65
 30
0
 40
1
  0
ARC
  5
106
100
AcDbEntity
  8
HS_Connection_Line
100
AcDbCircle
370
-1
  6
HS_Hidden
 10
39
 20
21
 30
0
 40
1
100
AcDbArc
 50
270
 51
90
  0
LINE
  5
107
100
AcDbEntity
  8
HS_Connection_Line
100
AcDbLine
370
-1
  6
HS_Hidden
 10
39
 20
64
 30
0
 11
38.9999981641216
 21
22
 31
0
  0
ARC
  5
108
100
AcDbEntity
  8
HS_Connection_Line
100
AcDbCircle
370
-1
  6
HS_Hidden
 10
39
 20
21
 30
0
 40
1
100
AcDbArc
 50
270
 51
90
  0
ARC
  5
109
100
AcDbEntity
  8
HS_Connection_Line
100
AcDbCircle
370
-1
  6
HS_Hidden
 10
39
 20
-1
 30
0
 40
1
100
AcDbArc
 50
270
 51
90
  0
LINE
  5
10A
100
AcDbEntity
  8
HS_Connection_Line
100
AcDbLine
370
-1
  6
HS_Hidden
 10
38.9999990820608
 20
20
 30
0
 11
38.9999990820608
 21
2.00617300549766E-14
 31
0
  0
ARC
  5
10B
100
AcDbEntity
  8
HS_Connection_Line
100
AcDbCircle
370
-1
  6
HS_Hidden
 10
39
 20
-1
 30
0
 40
1
100
AcDbArc
 50
270
 51
90
  0
LINE
  5
10C
100
AcDbEntity
  8
HS_Connection_Line
100
AcDbLine
370
-1
  6
HS_Hidden
 10
38.9999996940203
 20
-2.00000000000001
 30
0
 11
39
 21
-9
 31
0
  0
LINE
  5
10D
100
AcDbEntity
  8
HS_Connection_Line
100
AcDbLine
370
-1
  6
HS_Hidden
 10
39
 20
-9
 30
0
 11
26
 21
-9
 31
0
  0
CIRCLE
  5
10E
100
AcDbEntity
  8
HS_Connection_Line
100
AcDbCircle
370
-1
  6
HS_Solid
 10
26
 20
-9
 30
0
 40
0.8
  0
LWPOLYLINE
  5
10F
100
AcDbEntity
  8
HS_Connection_Line
100
AcDbPolyline
  6
HS_Solid
 38
0
 90
34
 70
0
 10
25.6335017221673
 20
-8.28888888888889
 10
26.3664982778327
 20
-8.28888888888889
 10
25.4971685111562
 20
-8.37777777777778
 10
26.5028314888438
 20
-8.37777777777778
 10
25.4037152060001
 20
-8.46666666666667
 10
26.5962847939999
 20
-8.46666666666667
 10
25.3348164645735
 20
-8.55555555555556
 10
26.6651835354265
 20
-8.55555555555556
 10
25.2833548668179
 20
-8.64444444444444
 10
26.7166451331821
 20
-8.64444444444444
 10
25.2457527667344
 20
-8.73333333333333
 10
26.7542472332657
 20
-8.73333333333333
 10
25.2200031655651
 20
-8.82222222222222
 10
26.7799968344349
 20
-8.82222222222222
 10
25.2049536080001
 20
-8.91111111111111
 10
26.7950463919999
 20
-8.91111111111111
 10
25.2
 20
-9
 10
26.8
 20
-9
 10
25.2049536080001
 20
-9.08888888888889
 10
26.7950463919999
 20
-9.08888888888889
 10
25.2200031655651
 20
-9.17777777777778
 10
26.7799968344349
 20
-9.17777777777778
 10
25.2457527667344
 20
-9.26666666666667
 10
26.7542472332657
 20
-9.26666666666667
 10
25.2833548668179
 20
-9.35555555555556
 10
26.7166451331821
 20
-9.35555555555556
 10
25.3348164645735
 20
-9.44444444444444
 10
26.6651835354265
 20
-9.44444444444444
 10
25.4037152060001
 20
-9.53333333333333
 10
26.5962847939999
 20
-9.53333333333333
 10
25.4971685111562
 20
-9.62222222222222
 10
26.5028314888438
 20
-9.62222222222222
 10
25.6335017221673
 20
-9.71111111111111
 10
26.3664982778327
 20
-9.71111111111111
  0
LINE
  5
110
100
AcDbEntity
  8
HS_Connection_Line
100
AcDbLine
370
-1
  6
HS_Hidden
 10
26
 20
-9
 30
0
 11
26
 21
-13
 31
0
  0
LINE
  5
111
100
AcDbEntity
  8
HS_Orifice
100
AcDbLine
370
-1
 10
12
 20
-13
 30
0
 11
12
 21
-17
 31
0
  0
CIRCLE
  5
112
100
AcDbEntity
  8
HS_Orifice
100
AcDbCircle
370
-1
 10
12
 20
-15
 30
0
 40
2
  0
ARC
  5
113
100
AcDbEntity
  8
HS_Orifice
100
AcDbCircle
370
-1
 10
14.3
 20
-15
 30
0
 40
1.5
100
AcDbArc
 50
138.189685462059
 51
221.810315253616
  0
ARC
  5
114
100
AcDbEntity
  8
HS_Orifice
100
AcDbCircle
370
-1
 10
9.70000000000001
 20
-14.9999997989276
 30
0
 40
1.5
100
AcDbArc
 50
318.189679737427
 51
41.8103095289844
  0
ENDSEC
  0
SECTION
  2
OBJECTS
  0
DICTIONARY
  5
115
100
AcDbDictionary
  3
ACAD_GROUP
350
116
  3
ACAD_MATERIAL
350
117
  3
ACAD_WIPEOUT_VARS
350
118
  3
ACAD_MLINESTYLE
350
119
  3
ACAD_LAYOUT
350
11A
  0
DICTIONARY
  5
116
330
115
100
AcDbDictionary
  0
DICTIONARY
  5
117
330
115
100
AcDbDictionary
  0
WIPEOUTVARIABLES
  5
118
330
115
100
AcDbWipeoutVariables
 70
1
  0
DICTIONARY
  5
119
330
115
100
AcDbDictionary
  3
STANDARD
350
11B
  0
MLINESTYLE
  5
11B
100
AcDbMlineStyle
  2
STANDARD
 70
0
  3

 62
256
 51
90
 52
90
 71
2
 49
0.5
 62
256
  6
ByLayer
 49
-0.5
 62
256
  6
ByLayer
  0
DICTIONARY
  5
11A
100
AcDbDictionary
281
1
  3
Model
350
13
  0
LAYOUT
  5
13
102
{ACAD_REACTORS
330
11A
102
}
330
11A
100
AcDbPlotSettings
  1

  2
none_device
  4

  6

 40
0
 41
0
 42
0
 43
0
 44
0
 45
0
 46
0
 47
0
 48
0
 49
0
 70
1712
 72
1
 73
0
 74
5
 75
16
 76
0
 77
0
 78
100
140
0
141
0
142
1
143
1
147
1
148
0
149
0
100
AcDbLayout
  1
Model
 70
1
 71
1
 10
-48
 20
-24.5
 11
60
 21
65
 12
0
 22
0
 32
0
 14
-48
 24
-24.5
 34
0
 15
60
 25
65
 35
0
146
0
 13
0
 23
0
 33
0
 16
1
 26
0
 36
0
 17
0
 27
1
 37
0
 76
0
330
63
  0
DICTIONARY
  5
11C
100
AcDbDictionary
280
1
  3
XINFO
360
11D
  0
XRECORD
  5
11D
102
{ACAD_REACTORS
330
11C
102
}
330
11C
100
AcDbXrecord
280
0
310
000000007D00E807
311
534E9CC4187D25A8
  0
ENDSEC
  0
EOF
