999
The file was created in CADSoftTools software
999

  0
SECTION
  2
HEADER
  9
$ACADVER
  1
AC1015
  9
$DWGCODEPAGE
  3
ANSI_1252
  9
$CLAYER
  8
0
  9
$CELTYPE
  6
BYLAYER
  9
$CELTSCALE
 40
1
  9
$CELWEIGHT
370
-1
  9
$DIMALT
 70
0
  9
$DIMALTF
 40
1
  9
$DIMPOST
  1

  9
$DIMAPOST
  1

  9
$DIMSCALE
 40
1
  9
$DIMASZ
 40
0.18
  9
$DIMCLRD
 70
0
  9
$DIMCLRE
 70
0
  9
$DIMCLRT
 70
0
  9
$DIMEXE
 40
0.18
  9
$DIMEXO
 40
0.0625
  9
$DIMGAP
 40
0.0625
  9
$DIMLFAC
 40
1
  9
$DIMDEC
 70
4
  9
$DIMTAD
 70
0
  9
$DIMCEN
 40
0.09
  9
$DIMTIH
 70
1
  9
$DIMTIX
 70
0
  9
$DIMTOH
 70
1
  9
$DIMSE1
 70
0
  9
$DIMSE2
 70
0
  9
$DIMSD1
 70
0
  9
$DIMSD2
 70
0
  9
$DIMLWD
 70
-1
  9
$DIMLWE
 70
-1
  9
$DIMSAH
 70
0
  9
$DIMBLK
  1

  9
$DIMBLK1
  1

  9
$DIMBLK2
  1

  9
$DIMLDRBLK
  1

  9
$DIMSTYLE
  2
STANDARD
  9
$DIMTP
 40
0
  9
$DIMTM
 40
0
  9
$DIMTXT
 40
0.18
  9
$DIMLUNIT
 70
2
  9
$DIMDSEP
 70
46
  9
$DIMTXSTY
  7
STANDARD
  9
$TEXTSIZE
 40
0.18
  9
$TEXTSTYLE
  7
STANDARD
  9
$HANDSEED
  5
0000000000000118
  9
$FILLETRAD
 40
0.5
  9
$INSUNITS
 70
4
  9
$LIMMIN
 10
-64.5
 20
-44.6875
  9
$LIMMAX
 10
70.5
 20
67.1875
  9
$FILLMODE
 70
1
  9
$LTSCALE
 40
1
  9
$MEASUREMENT
 70
0
  9
$ATTMODE
 70
1
  9
$PDMODE
 70
0
  9
$PDSIZE
 40
0
  9
$TILEMODE
 70
1
  9
$UCSORG
 10
0
 20
0
 30
0
  9
$UCSXDIR
 10
1
 20
0
 30
0
  9
$UCSYDIR
 10
0
 20
1
 30
0
  9
$INSBASE
 10
0
 20
0
 30
0
  9
$XCLIPFRAME
290
1
  9
$DIMASSOC
280
2
  9
$TDCREATE
 40
2460469.56517542
  9
$TDINDWG
 40
3.58796296296296E-7
  9
$TDUPDATE
 40
2460469.56517578
  0
ENDSEC
  0
SECTION
  2
CLASSES
  0
CLASS
  1
IMAGE
  2
AcDbRasterImage
  3
ISM
 90
2175
280
0
281
1
  0
CLASS
  1
IMAGEDEF
  2
AcDbRasterImageDef
  3
ISM
 90
0
280
0
281
0
  0
CLASS
  1
WIPEOUT
  2
AcDbWipeout
  3
"WipeOut"
 90
2175
280
0
281
1
  0
CLASS
  1
WIPEOUTVARIABLES
  2
AcDbWipeoutVariables
  3
"WipeOut"
 90
0
280
0
281
0
  0
CLASS
  1
MPOLYGON
  2
AcDbMPolygon
  3
"AcMPolygonObj15"
 90
3071
280
0
281
1
  0
ENDSEC
  0
SECTION
  2
TABLES
  0
TABLE
  2
APPID
  5
64
100
AcDbSymbolTable
  0
APPID
  5
65
100
AcDbSymbolTableRecord
100
AcDbRegAppTableRecord
  2
ACAD
 70
0
  0
APPID
  5
12
100
AcDbSymbolTableRecord
100
AcDbRegAppTableRecord
  2
CSTINVENTORY
 70
0
  0
APPID
  5
66
100
AcDbSymbolTableRecord
100
AcDbRegAppTableRecord
  2
AcDbAttr
 70
0
  0
APPID
  5
67
100
AcDbSymbolTableRecord
100
AcDbRegAppTableRecord
  2
PE_URL
 70
0
  0
ENDTAB
  0
TABLE
  2
BLOCK_RECORD
  5
68
100
AcDbSymbolTable
  0
BLOCK_RECORD
  5
63
100
AcDbSymbolTableRecord
100
AcDbBlockTableRecord
  2
*MODEL_SPACE
  0
BLOCK_RECORD
  5
69
100
AcDbSymbolTableRecord
100
AcDbBlockTableRecord
  2
*PAPER_SPACE
  0
BLOCK_RECORD
  5
10
100
AcDbSymbolTableRecord
100
AcDbBlockTableRecord
  2
_CLOSEDFILLED
  0
ENDTAB
  0
TABLE
  2
STYLE
  5
3
100
AcDbSymbolTable
  0
STYLE
  5
A
100
AcDbSymbolTableRecord
100
AcDbTextStyleTableRecord
  2
STANDARD
 70
0
 40
0
 41
1
 50
0
 71
0
 42
2.5
  3
txt
  4

  0
STYLE
  5
2E
100
AcDbSymbolTableRecord
100
AcDbTextStyleTableRecord
  2
HS_Text1
 70
0
 40
0
 41
1
 50
0
 71
0
 42
2.5
  3
arial.ttf
  4

1001
ACAD
1000
Arial
1071
0
  0
STYLE
  5
2F
100
AcDbSymbolTableRecord
100
AcDbTextStyleTableRecord
  2
HS_Text1__BD
 70
0
 40
0
 41
1
 50
0
 71
0
 42
2.5
  3
arialbd.ttf
  4

1001
ACAD
1000
Arial
1071
33554432
  0
STYLE
  5
30
100
AcDbSymbolTableRecord
100
AcDbTextStyleTableRecord
  2
HS_Text1__IT
 70
0
 40
0
 41
1
 50
0
 71
0
 42
2.5
  3
arialbi.ttf
  4

1001
ACAD
1000
Arial
1071
16777216
  0
STYLE
  5
31
100
AcDbSymbolTableRecord
100
AcDbTextStyleTableRecord
  2
HS_Text1__BI
 70
0
 40
0
 41
1
 50
0
 71
0
 42
2.5
  3
arialbi.ttf
  4

1001
ACAD
1000
Arial
1071
50331648
  0
STYLE
  5
32
100
AcDbSymbolTableRecord
100
AcDbTextStyleTableRecord
  2
TextStyle_Attribute
 70
0
 40
0
 41
1
 50
0
 71
0
 42
2.5
  3
arial.ttf
  4

1001
ACAD
1000
Arial
1071
0
  0
STYLE
  5
33
100
AcDbSymbolTableRecord
100
AcDbTextStyleTableRecord
  2
TextStyle_Attribute__BD
 70
0
 40
0
 41
1
 50
0
 71
0
 42
2.5
  3
arialbd.ttf
  4

1001
ACAD
1000
Arial
1071
33554432
  0
STYLE
  5
34
100
AcDbSymbolTableRecord
100
AcDbTextStyleTableRecord
  2
TextStyle_Attribute__IT
 70
0
 40
0
 41
1
 50
0
 71
0
 42
2.5
  3
arialbi.ttf
  4

1001
ACAD
1000
Arial
1071
16777216
  0
STYLE
  5
35
100
AcDbSymbolTableRecord
100
AcDbTextStyleTableRecord
  2
TextStyle_Attribute__BI
 70
0
 40
0
 41
1
 50
0
 71
0
 42
2.5
  3
arialbi.ttf
  4

1001
ACAD
1000
Arial
1071
50331648
  0
STYLE
  5
36
100
AcDbSymbolTableRecord
100
AcDbTextStyleTableRecord
  2
TextStyle_BOM
 70
0
 40
0
 41
1
 50
0
 71
0
 42
2.5
  3
ARIALN.TTF
  4

1001
ACAD
1000
Arial Narrow
1071
0
  0
STYLE
  5
37
100
AcDbSymbolTableRecord
100
AcDbTextStyleTableRecord
  2
TextStyle_BOM__BD
 70
0
 40
0
 41
1
 50
0
 71
0
 42
2.5
  3
ARIALNB.TTF
  4

1001
ACAD
1000
Arial Narrow
1071
33554432
  0
STYLE
  5
38
100
AcDbSymbolTableRecord
100
AcDbTextStyleTableRecord
  2
TextStyle_BOM__IT
 70
0
 40
0
 41
1
 50
0
 71
0
 42
2.5
  3
ARIALNBI.TTF
  4

1001
ACAD
1000
Arial Narrow
1071
16777216
  0
STYLE
  5
39
100
AcDbSymbolTableRecord
100
AcDbTextStyleTableRecord
  2
TextStyle_BOM__BI
 70
0
 40
0
 41
1
 50
0
 71
0
 42
2.5
  3
ARIALNBI.TTF
  4

1001
ACAD
1000
Arial Narrow
1071
50331648
  0
STYLE
  5
3A
100
AcDbSymbolTableRecord
100
AcDbTextStyleTableRecord
  2
TextStyle_ConnectionLineFlow
 70
0
 40
0
 41
1
 50
0
 71
0
 42
2.5
  3
arial.ttf
  4

1001
ACAD
1000
Arial
1071
0
  0
STYLE
  5
3B
100
AcDbSymbolTableRecord
100
AcDbTextStyleTableRecord
  2
TextStyle_ConnectionLineFlow__BD
 70
0
 40
0
 41
1
 50
0
 71
0
 42
2.5
  3
arialbd.ttf
  4

1001
ACAD
1000
Arial
1071
33554432
  0
STYLE
  5
3C
100
AcDbSymbolTableRecord
100
AcDbTextStyleTableRecord
  2
TextStyle_ConnectionLineFlow__IT
 70
0
 40
0
 41
1
 50
0
 71
0
 42
2.5
  3
arialbi.ttf
  4

1001
ACAD
1000
Arial
1071
16777216
  0
STYLE
  5
3D
100
AcDbSymbolTableRecord
100
AcDbTextStyleTableRecord
  2
TextStyle_ConnectionLineFlow__BI
 70
0
 40
0
 41
1
 50
0
 71
0
 42
2.5
  3
arialbi.ttf
  4

1001
ACAD
1000
Arial
1071
50331648
  0
STYLE
  5
3E
100
AcDbSymbolTableRecord
100
AcDbTextStyleTableRecord
  2
TextStyle_ConnectionLineSize
 70
0
 40
0
 41
1
 50
0
 71
0
 42
2.5
  3
arial.ttf
  4

1001
ACAD
1000
Arial
1071
0
  0
STYLE
  5
3F
100
AcDbSymbolTableRecord
100
AcDbTextStyleTableRecord
  2
TextStyle_ConnectionLineSize__BD
 70
0
 40
0
 41
1
 50
0
 71
0
 42
2.5
  3
arialbd.ttf
  4

1001
ACAD
1000
Arial
1071
33554432
  0
STYLE
  5
40
100
AcDbSymbolTableRecord
100
AcDbTextStyleTableRecord
  2
TextStyle_ConnectionLineSize__IT
 70
0
 40
0
 41
1
 50
0
 71
0
 42
2.5
  3
arialbi.ttf
  4

1001
ACAD
1000
Arial
1071
16777216
  0
STYLE
  5
41
100
AcDbSymbolTableRecord
100
AcDbTextStyleTableRecord
  2
TextStyle_ConnectionLineSize__BI
 70
0
 40
0
 41
1
 50
0
 71
0
 42
2.5
  3
arialbi.ttf
  4

1001
ACAD
1000
Arial
1071
50331648
  0
STYLE
  5
42
100
AcDbSymbolTableRecord
100
AcDbTextStyleTableRecord
  2
TextStyle_ConnectionLineVelocity
 70
0
 40
0
 41
1
 50
0
 71
0
 42
2.5
  3
arial.ttf
  4

1001
ACAD
1000
Arial
1071
0
  0
STYLE
  5
43
100
AcDbSymbolTableRecord
100
AcDbTextStyleTableRecord
  2
TextStyle_ConnectionLineVelocity__BD
 70
0
 40
0
 41
1
 50
0
 71
0
 42
2.5
  3
arialbd.ttf
  4

1001
ACAD
1000
Arial
1071
33554432
  0
STYLE
  5
44
100
AcDbSymbolTableRecord
100
AcDbTextStyleTableRecord
  2
TextStyle_ConnectionLineVelocity__IT
 70
0
 40
0
 41
1
 50
0
 71
0
 42
2.5
  3
arialbi.ttf
  4

1001
ACAD
1000
Arial
1071
16777216
  0
STYLE
  5
45
100
AcDbSymbolTableRecord
100
AcDbTextStyleTableRecord
  2
TextStyle_ConnectionLineVelocity__BI
 70
0
 40
0
 41
1
 50
0
 71
0
 42
2.5
  3
arialbi.ttf
  4

1001
ACAD
1000
Arial
1071
50331648
  0
STYLE
  5
46
100
AcDbSymbolTableRecord
100
AcDbTextStyleTableRecord
  2
TextStyle_HoseType
 70
0
 40
0
 41
1
 50
0
 71
0
 42
2.5
  3
arial.ttf
  4

1001
ACAD
1000
Arial
1071
0
  0
STYLE
  5
47
100
AcDbSymbolTableRecord
100
AcDbTextStyleTableRecord
  2
TextStyle_HoseType__BD
 70
0
 40
0
 41
1
 50
0
 71
0
 42
2.5
  3
arialbd.ttf
  4

1001
ACAD
1000
Arial
1071
33554432
  0
STYLE
  5
48
100
AcDbSymbolTableRecord
100
AcDbTextStyleTableRecord
  2
TextStyle_HoseType__IT
 70
0
 40
0
 41
1
 50
0
 71
0
 42
2.5
  3
arialbi.ttf
  4

1001
ACAD
1000
Arial
1071
16777216
  0
STYLE
  5
49
100
AcDbSymbolTableRecord
100
AcDbTextStyleTableRecord
  2
TextStyle_HoseType__BI
 70
0
 40
0
 41
1
 50
0
 71
0
 42
2.5
  3
arialbi.ttf
  4

1001
ACAD
1000
Arial
1071
50331648
  0
STYLE
  5
4A
100
AcDbSymbolTableRecord
100
AcDbTextStyleTableRecord
  2
TextStyle_IPort
 70
0
 40
0
 41
1
 50
0
 71
0
 42
2.5
  3
arial.ttf
  4

1001
ACAD
1000
Arial
1071
0
  0
STYLE
  5
4B
100
AcDbSymbolTableRecord
100
AcDbTextStyleTableRecord
  2
TextStyle_IPort__BD
 70
0
 40
0
 41
1
 50
0
 71
0
 42
2.5
  3
arialbd.ttf
  4

1001
ACAD
1000
Arial
1071
33554432
  0
STYLE
  5
4C
100
AcDbSymbolTableRecord
100
AcDbTextStyleTableRecord
  2
TextStyle_IPort__IT
 70
0
 40
0
 41
1
 50
0
 71
0
 42
2.5
  3
arialbi.ttf
  4

1001
ACAD
1000
Arial
1071
16777216
  0
STYLE
  5
4D
100
AcDbSymbolTableRecord
100
AcDbTextStyleTableRecord
  2
TextStyle_IPort__BI
 70
0
 40
0
 41
1
 50
0
 71
0
 42
2.5
  3
arialbi.ttf
  4

1001
ACAD
1000
Arial
1071
50331648
  0
STYLE
  5
4E
100
AcDbSymbolTableRecord
100
AcDbTextStyleTableRecord
  2
TextStyle_ItemNumber
 70
0
 40
0
 41
1
 50
0
 71
0
 42
2.5
  3
arial.ttf
  4

1001
ACAD
1000
Arial
1071
0
  0
STYLE
  5
4F
100
AcDbSymbolTableRecord
100
AcDbTextStyleTableRecord
  2
TextStyle_ItemNumber__BD
 70
0
 40
0
 41
1
 50
0
 71
0
 42
2.5
  3
arialbd.ttf
  4

1001
ACAD
1000
Arial
1071
33554432
  0
STYLE
  5
50
100
AcDbSymbolTableRecord
100
AcDbTextStyleTableRecord
  2
TextStyle_ItemNumber__IT
 70
0
 40
0
 41
1
 50
0
 71
0
 42
2.5
  3
arialbi.ttf
  4

1001
ACAD
1000
Arial
1071
16777216
  0
STYLE
  5
51
100
AcDbSymbolTableRecord
100
AcDbTextStyleTableRecord
  2
TextStyle_ItemNumber__BI
 70
0
 40
0
 41
1
 50
0
 71
0
 42
2.5
  3
arialbi.ttf
  4

1001
ACAD
1000
Arial
1071
50331648
  0
STYLE
  5
52
100
AcDbSymbolTableRecord
100
AcDbTextStyleTableRecord
  2
TextStyle_Port
 70
0
 40
0
 41
1
 50
0
 71
0
 42
2.5
  3
arial.ttf
  4

1001
ACAD
1000
Arial
1071
0
  0
STYLE
  5
53
100
AcDbSymbolTableRecord
100
AcDbTextStyleTableRecord
  2
TextStyle_Port__BD
 70
0
 40
0
 41
1
 50
0
 71
0
 42
2.5
  3
arialbd.ttf
  4

1001
ACAD
1000
Arial
1071
33554432
  0
STYLE
  5
54
100
AcDbSymbolTableRecord
100
AcDbTextStyleTableRecord
  2
TextStyle_Port__IT
 70
0
 40
0
 41
1
 50
0
 71
0
 42
2.5
  3
arialbi.ttf
  4

1001
ACAD
1000
Arial
1071
16777216
  0
STYLE
  5
55
100
AcDbSymbolTableRecord
100
AcDbTextStyleTableRecord
  2
TextStyle_Port__BI
 70
0
 40
0
 41
1
 50
0
 71
0
 42
2.5
  3
arialbi.ttf
  4

1001
ACAD
1000
Arial
1071
50331648
  0
STYLE
  5
56
100
AcDbSymbolTableRecord
100
AcDbTextStyleTableRecord
  2
TextStyle_Revisions
 70
0
 40
0
 41
1
 50
0
 71
0
 42
2.5
  3
arial.ttf
  4

1001
ACAD
1000
Arial
1071
0
  0
STYLE
  5
57
100
AcDbSymbolTableRecord
100
AcDbTextStyleTableRecord
  2
TextStyle_Revisions__BD
 70
0
 40
0
 41
1
 50
0
 71
0
 42
2.5
  3
arialbd.ttf
  4

1001
ACAD
1000
Arial
1071
33554432
  0
STYLE
  5
58
100
AcDbSymbolTableRecord
100
AcDbTextStyleTableRecord
  2
TextStyle_Revisions__IT
 70
0
 40
0
 41
1
 50
0
 71
0
 42
2.5
  3
arialbi.ttf
  4

1001
ACAD
1000
Arial
1071
16777216
  0
STYLE
  5
59
100
AcDbSymbolTableRecord
100
AcDbTextStyleTableRecord
  2
TextStyle_Revisions__BI
 70
0
 40
0
 41
1
 50
0
 71
0
 42
2.5
  3
arialbi.ttf
  4

1001
ACAD
1000
Arial
1071
50331648
  0
STYLE
  5
5A
100
AcDbSymbolTableRecord
100
AcDbTextStyleTableRecord
  2
TextStyle_RevTriangle
 70
0
 40
0
 41
1
 50
0
 71
0
 42
2.5
  3
arial.ttf
  4

1001
ACAD
1000
Arial
1071
0
  0
STYLE
  5
5B
100
AcDbSymbolTableRecord
100
AcDbTextStyleTableRecord
  2
TextStyle_RevTriangle__BD
 70
0
 40
0
 41
1
 50
0
 71
0
 42
2.5
  3
arialbd.ttf
  4

1001
ACAD
1000
Arial
1071
33554432
  0
STYLE
  5
5C
100
AcDbSymbolTableRecord
100
AcDbTextStyleTableRecord
  2
TextStyle_RevTriangle__IT
 70
0
 40
0
 41
1
 50
0
 71
0
 42
2.5
  3
arialbi.ttf
  4

1001
ACAD
1000
Arial
1071
16777216
  0
STYLE
  5
5D
100
AcDbSymbolTableRecord
100
AcDbTextStyleTableRecord
  2
TextStyle_RevTriangle__BI
 70
0
 40
0
 41
1
 50
0
 71
0
 42
2.5
  3
arialbi.ttf
  4

1001
ACAD
1000
Arial
1071
50331648
  0
STYLE
  5
5E
100
AcDbSymbolTableRecord
100
AcDbTextStyleTableRecord
  2
TextStyle_Text
 70
0
 40
0
 41
1
 50
0
 71
0
 42
2.5
  3
arial.ttf
  4

1001
ACAD
1000
Arial
1071
0
  0
STYLE
  5
5F
100
AcDbSymbolTableRecord
100
AcDbTextStyleTableRecord
  2
TextStyle_Text__BD
 70
0
 40
0
 41
1
 50
0
 71
0
 42
2.5
  3
arialbd.ttf
  4

1001
ACAD
1000
Arial
1071
33554432
  0
STYLE
  5
60
100
AcDbSymbolTableRecord
100
AcDbTextStyleTableRecord
  2
TextStyle_Text__IT
 70
0
 40
0
 41
1
 50
0
 71
0
 42
2.5
  3
arialbi.ttf
  4

1001
ACAD
1000
Arial
1071
16777216
  0
STYLE
  5
61
100
AcDbSymbolTableRecord
100
AcDbTextStyleTableRecord
  2
TextStyle_Text__BI
 70
0
 40
0
 41
1
 50
0
 71
0
 42
2.5
  3
arialbi.ttf
  4

1001
ACAD
1000
Arial
1071
50331648
  0
ENDTAB
  0
TABLE
  2
LTYPE
  5
1
100
AcDbSymbolTable
  0
LTYPE
  5
9
100
AcDbSymbolTableRecord
100
AcDbLinetypeTableRecord
  2
CONTINUOUS
 70
0
  3

 72
65
 73
0
 40
0
  0
LTYPE
  5
7
100
AcDbSymbolTableRecord
100
AcDbLinetypeTableRecord
  2
BYLAYER
 70
0
  3

 72
65
 73
0
 40
0
  0
LTYPE
  5
8
100
AcDbSymbolTableRecord
100
AcDbLinetypeTableRecord
  2
BYBLOCK
 70
0
  3

 72
65
 73
0
 40
0
  0
LTYPE
  5
14
100
AcDbSymbolTableRecord
100
AcDbLinetypeTableRecord
  2
HS_Default
 70
0
  3

 72
65
 73
0
 40
0
  0
LTYPE
  5
15
100
AcDbSymbolTableRecord
100
AcDbLinetypeTableRecord
  2
HS_Solid
 70
0
  3

 72
65
 73
0
 40
0
  0
LTYPE
  5
16
100
AcDbSymbolTableRecord
100
AcDbLinetypeTableRecord
  2
HS_Hidden
 70
0
  3
_ 
 72
65
 73
2
 40
2.3
 49
1.5
 74
0
 49
-0.8
 74
0
  0
LTYPE
  5
17
100
AcDbSymbolTableRecord
100
AcDbLinetypeTableRecord
  2
HS_Dashed
 70
0
  3
_ 
 72
65
 73
2
 40
3.3
 49
2.5
 74
0
 49
-0.8
 74
0
  0
LTYPE
  5
18
100
AcDbSymbolTableRecord
100
AcDbLinetypeTableRecord
  2
HS_Border
 70
0
  3
_ _ 
 72
65
 73
4
 40
10
 49
6.5
 74
0
 49
-1
 74
0
 49
1.5
 74
0
 49
-1
 74
0
  0
ENDTAB
  0
TABLE
  2
LAYER
  5
2
100
AcDbSymbolTable
  0
LAYER
  5
E
100
AcDbSymbolTableRecord
100
AcDbLayerTableRecord
  2
0
 70
0
 62
7
  6
CONTINUOUS
290
1
370
-3
390
0
  0
LAYER
  5
19
100
AcDbSymbolTableRecord
100
AcDbLayerTableRecord
  2
HS_Symbol
 70
0
 62
7
  6
HS_Solid
290
1
370
35
390
0
  0
LAYER
  5
1A
100
AcDbSymbolTableRecord
100
AcDbLayerTableRecord
  2
HS_Solenoid
 70
0
 62
7
  6
HS_Solid
290
1
370
35
390
0
  0
LAYER
  5
1B
100
AcDbSymbolTableRecord
100
AcDbLayerTableRecord
  2
HS_Orifice
 70
0
 62
7
  6
HS_Solid
290
1
370
35
390
0
  0
LAYER
  5
1C
100
AcDbSymbolTableRecord
100
AcDbLayerTableRecord
  2
HS_Line
 70
0
 62
7
  6
HS_Solid
290
1
370
18
390
0
  0
LAYER
  5
1D
100
AcDbSymbolTableRecord
100
AcDbLayerTableRecord
  2
HS_Pilot
 70
0
 62
7
  6
HS_Dashed
290
1
370
18
390
0
  0
LAYER
  5
1E
100
AcDbSymbolTableRecord
100
AcDbLayerTableRecord
  2
HS_Drain
 70
0
 62
7
  6
HS_Hidden
290
1
370
18
390
0
  0
LAYER
  5
1F
100
AcDbSymbolTableRecord
100
AcDbLayerTableRecord
  2
HS_Border
 70
0
 62
7
  6
HS_Border
290
1
370
25
390
0
  0
LAYER
  5
20
100
AcDbSymbolTableRecord
100
AcDbLayerTableRecord
  2
HS_IBorder
 70
0
 62
7
  6
HS_Border
290
1
370
35
390
0
  0
LAYER
  5
21
100
AcDbSymbolTableRecord
100
AcDbLayerTableRecord
  2
HS_Text
 70
0
 62
7
  6
HS_Solid
290
1
390
0
  0
LAYER
  5
22
100
AcDbSymbolTableRecord
100
AcDbLayerTableRecord
  2
HS_Attribute
 70
0
 62
7
  6
HS_Solid
290
1
390
0
  0
LAYER
  5
23
100
AcDbSymbolTableRecord
100
AcDbLayerTableRecord
  2
HS_ItemNumber
 70
0
 62
7
  6
HS_Solid
290
1
390
0
  0
LAYER
  5
24
100
AcDbSymbolTableRecord
100
AcDbLayerTableRecord
  2
HS_Leader
 70
0
 62
7
  6
HS_Solid
290
1
390
0
  0
LAYER
  5
25
100
AcDbSymbolTableRecord
100
AcDbLayerTableRecord
  2
HS_Port
 70
0
 62
7
  6
HS_Solid
290
1
370
35
390
0
  0
LAYER
  5
26
100
AcDbSymbolTableRecord
100
AcDbLayerTableRecord
  2
HS_Connection_Line
 70
0
 62
7
  6
HS_Solid
290
1
370
35
390
0
  0
LAYER
  5
27
100
AcDbSymbolTableRecord
100
AcDbLayerTableRecord
  2
HS_Hose
 70
0
 62
7
  6
HS_Solid
290
1
370
35
390
0
  0
LAYER
  5
28
100
AcDbSymbolTableRecord
100
AcDbLayerTableRecord
  2
HS_Electric
 70
0
 62
7
  6
HS_Solid
290
1
370
35
390
0
  0
LAYER
  5
29
100
AcDbSymbolTableRecord
100
AcDbLayerTableRecord
  2
Pressure
 70
0
 62
30
  6
HS_Solid
290
1
370
20
390
0
  0
LAYER
  5
2A
100
AcDbSymbolTableRecord
100
AcDbLayerTableRecord
  2
Reservoir
 70
0
 62
140
  6
HS_Solid
290
1
370
20
390
0
  0
LAYER
  5
2B
100
AcDbSymbolTableRecord
100
AcDbLayerTableRecord
  2
Control
 70
0
 62
30
  6
HS_Dashed
290
1
370
20
390
0
  0
LAYER
  5
2C
100
AcDbSymbolTableRecord
100
AcDbLayerTableRecord
  2
Drain
 70
0
 62
140
  6
HS_Hidden
290
1
370
20
390
0
  0
LAYER
  5
2D
100
AcDbSymbolTableRecord
100
AcDbLayerTableRecord
  2
Working
 70
0
 62
70
  6
HS_Solid
290
1
370
20
390
0
  0
ENDTAB
  0
TABLE
  2
VPORT
  5
6A
100
AcDbSymbolTable
  0
VPORT
  5
6C
100
AcDbSymbolTableRecord
100
AcDbViewportTableRecord
  2
*ACTIVE
 70
0
 10
0
 20
0
 11
1
 21
1
 12
3
 22
11.25
 32
0
 13
0
 23
0
 14
1
 24
1
 15
1
 25
1
 16
0
 26
0
 36
1
 17
0
 27
0
 37
0
 40
89.5
 41
1.20670391061453
 42
50
 43
0
 44
0
 50
0
 51
0
 71
0
 72
100
 73
1
 74
1
 75
0
 76
0
 77
0
 78
0
  0
ENDTAB
  0
TABLE
  2
VIEW
  5
6D
100
AcDbSymbolTable
  0
ENDTAB
  0
TABLE
  2
UCS
  5
6E
100
AcDbSymbolTable
  0
ENDTAB
  0
TABLE
  2
DIMSTYLE
  5
4
100
AcDbSymbolTable
 70
1
100
AcDbDimStyleTable
 71
0
  0
DIMSTYLE
105
B
100
AcDbSymbolTableRecord
100
AcDbDimStyleTableRecord
  2
STANDARD
 70
0
  3

 40
1
 41
0.18
 42
0.0625
 44
0.18
 47
0
 48
0
 73
1
 74
1
 75
0
 76
0
 77
0
140
0.18
141
0.09
144
1
147
0.0625
173
0
174
0
176
0
177
0
178
0
277
2
278
46
281
0
282
0
271
4
340
A
371
-1
372
-1
  0
ENDTAB
  0
ENDSEC
  0
SECTION
  2
BLOCKS
  0
BLOCK
  5
6F
100
AcDbEntity
  8
0
100
AcDbBlockBegin
  2
*MODEL_SPACE
 70
0
 10
0
 20
0
  0
ENDBLK
  5
70
100
AcDbEntity
  8
0
100
AcDbBlockEnd
  0
BLOCK
  5
71
100
AcDbEntity
  8
0
100
AcDbBlockBegin
  2
*PAPER_SPACE
 70
0
 10
0
 20
0
  0
ENDBLK
  5
72
100
AcDbEntity
  8
0
100
AcDbBlockEnd
  0
BLOCK
  5
F
100
AcDbEntity
  8
0
100
AcDbBlockBegin
  2
_CLOSEDFILLED
 70
0
 10
0
 20
0
 30
0
  3
_CLOSEDFILLED
  1

  0
SOLID
  5
C
100
AcDbEntity
  8
0
100
AcDbTrace
370
-2
 62
0
 10
-1
 20
0.166666666666667
 30
0
 11
0
 21
0
 31
0
 12
-1
 22
0.166666666666667
 32
0
 13
-1
 23
-0.166666666666667
 33
0
  0
LINE
  5
D
100
AcDbEntity
  8
0
100
AcDbLine
370
-2
 62
0
 10
-1
 20
0
 30
0
 11
-2
 21
0
 31
0
  0
ENDBLK
  5
73
100
AcDbEntity
  8
0
100
AcDbBlockEnd
  0
ENDSEC
  0
SECTION
  2
ENTITIES
  0
SOLID
  5
74
100
AcDbEntity
  8
HS_Symbol
100
AcDbTrace
370
-1
  6
HS_Solid
 10
-19.0000001311342
 20
40
 30
0
 11
-20.4999966504696
 21
36.9999998688661
 31
0
 12
-17.5000033495304
 22
37
 32
0
 13
-17.5000033495304
 23
37
 33
0
  0
LINE
  5
75
100
AcDbEntity
  8
HS_Symbol
100
AcDbLine
370
-1
 10
-24.8094749716314
 20
32.4999998153371
 30
0
 11
-28
 21
32.5
 31
0
  0
LINE
  5
76
100
AcDbEntity
  8
HS_Symbol
100
AcDbLine
370
-1
 10
-24.8094750669909
 20
35.4999998153371
 30
0
 11
-28
 21
35.5
 31
0
  0
CIRCLE
  5
77
100
AcDbEntity
  8
HS_Symbol
100
AcDbCircle
370
-1
 10
-19
 20
34
 30
0
 40
6
  0
LINE
  5
78
100
AcDbEntity
  8
HS_Symbol
100
AcDbLine
370
-1
 10
-19
 20
34
 30
0
 11
-34.5857864376269
 21
49.5857864376269
 31
0
  0
SOLID
  5
79
100
AcDbEntity
  8
HS_Symbol
100
AcDbTrace
370
-1
  6
HS_Solid
 10
-34.9647238195899
 20
49.2068490556639
 30
0
 11
-34.2068490556639
 21
49.9647238195899
 31
0
 12
-36
 22
51
 32
0
 13
-36
 23
51
 33
0
  0
LINE
  5
7A
100
AcDbEntity
  8
HS_Symbol
100
AcDbLine
370
-1
 10
-28
 20
35.5
 30
0
 11
-51
 21
35.5
 31
0
  0
LINE
  5
7B
100
AcDbEntity
  8
HS_Symbol
100
AcDbLine
370
-1
 10
-28
 20
32.5
 30
0
 11
-51
 21
32.5
 31
0
  0
ARC
  5
7C
100
AcDbEntity
  8
HS_Symbol
100
AcDbCircle
370
-1
  6
HS_Solid
 10
-56.8375
 20
34.1
 30
0
 40
9.0375
100
AcDbArc
 50
330.137165643725
 51
29.8628343562751
  0
LINE
  5
7D
100
AcDbEntity
  8
HS_Symbol
100
AcDbLine
370
-1
  6
HS_Solid
 10
-48.9
 20
38.4
 30
0
 11
-48.1055728090001
 21
36.8111456180002
 31
0
  0
SOLID
  5
7E
100
AcDbEntity
  8
HS_Symbol
100
AcDbTrace
370
-1
  6
HS_Solid
 10
-48.5848948960338
 20
36.5714845744833
 30
0
 11
-47.6262507219664
 21
37.050806661517
 31
0
 12
-49
 22
38.6
 32
0
 13
-49
 23
38.6
 33
0
  0
LWPOLYLINE
  5
7F
100
AcDbEntity
  8
HS_Symbol
100
AcDbPolyline
370
-1
 38
0
 90
4
 70
1
 10
-39
 20
24
 10
-31
 20
24
 10
-31
 20
26
 10
-39
 20
26
  0
LINE
  5
80
100
AcDbEntity
  8
HS_Symbol
100
AcDbLine
370
-1
 10
-36
 20
26
 30
0
 11
-36
 21
51
 31
0
  0
LINE
  5
81
100
AcDbEntity
  8
HS_Symbol
100
AcDbLine
370
-1
 10
-34
 20
26
 30
0
 11
-34
 21
49
 31
0
  0
LINE
  5
82
100
AcDbEntity
  8
HS_Symbol
100
AcDbLine
370
-1
 10
-31
 20
8
 30
0
 11
-39
 21
10
 31
0
  0
LINE
  5
83
100
AcDbEntity
  8
HS_Symbol
100
AcDbLine
370
-1
 10
-39
 20
10
 30
0
 11
-31
 21
12
 31
0
  0
LINE
  5
84
100
AcDbEntity
  8
HS_Symbol
100
AcDbLine
370
-1
 10
-31
 20
12
 30
0
 11
-39
 21
14
 31
0
  0
LINE
  5
85
100
AcDbEntity
  8
HS_Symbol
100
AcDbLine
370
-1
 10
-39
 20
14
 30
0
 11
-31
 21
16
 31
0
  0
LINE
  5
86
100
AcDbEntity
  8
HS_Symbol
100
AcDbLine
370
-1
 10
-31
 20
16
 30
0
 11
-39
 21
18
 31
0
  0
LINE
  5
87
100
AcDbEntity
  8
HS_Symbol
100
AcDbLine
370
-1
 10
-39
 20
18
 30
0
 11
-31
 21
20
 31
0
  0
LINE
  5
88
100
AcDbEntity
  8
HS_Symbol
100
AcDbLine
370
-1
 10
-37
 20
28
 30
0
 11
-39
 21
28
 31
0
  0
LINE
  5
89
100
AcDbEntity
  8
HS_Symbol
100
AcDbLine
370
-1
 10
-39
 20
28
 30
0
 11
-39
 21
8
 31
0
  0
LINE
  5
8A
100
AcDbEntity
  8
HS_Symbol
100
AcDbLine
370
-1
 10
-39
 20
8
 30
0
 11
-31
 21
8
 31
0
  0
LINE
  5
8B
100
AcDbEntity
  8
HS_Symbol
100
AcDbLine
370
-1
 10
-31
 20
8
 30
0
 11
-31
 21
28
 31
0
  0
LINE
  5
8C
100
AcDbEntity
  8
HS_Symbol
100
AcDbLine
370
-1
 10
-31
 20
28
 30
0
 11
-33
 21
28
 31
0
  0
LINE
  5
8D
100
AcDbEntity
  8
HS_Symbol
100
AcDbLine
370
-1
 10
-31
 20
20
 30
0
 11
-39
 21
22
 31
0
  0
LINE
  5
8E
100
AcDbEntity
  8
HS_Symbol
100
AcDbLine
370
-1
 10
-39
 20
22
 30
0
 11
-31
 21
24
 31
0
  0
LWPOLYLINE
  5
8F
100
AcDbEntity
  8
HS_Symbol
100
AcDbPolyline
370
-1
 38
0
 90
4
 70
1
 10
-7
 20
-8
 10
1
 20
-8
 10
1
 20
-6
 10
-7
 20
-6
  0
LINE
  5
90
100
AcDbEntity
  8
HS_Symbol
100
AcDbLine
370
-1
 10
-4
 20
-6
 30
0
 11
-4
 21
19
 31
0
  0
LINE
  5
91
100
AcDbEntity
  8
HS_Symbol
100
AcDbLine
370
-1
 10
-2
 20
-6
 30
0
 11
-2
 21
17
 31
0
  0
LINE
  5
92
100
AcDbEntity
  8
HS_Symbol
100
AcDbLine
370
-1
 10
-5
 20
8
 30
0
 11
-7
 21
8
 31
0
  0
LINE
  5
93
100
AcDbEntity
  8
HS_Symbol
100
AcDbLine
370
-1
 10
-7
 20
8
 30
0
 11
-7
 21
-12
 31
0
  0
LINE
  5
94
100
AcDbEntity
  8
HS_Symbol
100
AcDbLine
370
-1
 10
-7
 20
-12
 30
0
 11
1
 21
-12
 31
0
  0
LINE
  5
95
100
AcDbEntity
  8
HS_Symbol
100
AcDbLine
370
-1
 10
1
 20
-12
 30
0
 11
1
 21
8
 31
0
  0
LINE
  5
96
100
AcDbEntity
  8
HS_Symbol
100
AcDbLine
370
-1
 10
1
 20
8
 30
0
 11
-1
 21
8
 31
0
  0
LINE
  5
97
100
AcDbEntity
  8
HS_Symbol
100
AcDbLine
370
-1
 10
-19
 20
34
 30
0
 11
-3.4142135623731
 21
18.4142135623731
 31
0
  0
SOLID
  5
98
100
AcDbEntity
  8
HS_Symbol
100
AcDbTrace
370
-1
  6
HS_Solid
 10
-3.03527618041008
 20
18.7931509443361
 30
0
 11
-3.79315094433611
 21
18.0352761804101
 31
0
 12
-2
 22
17
 32
0
 13
-2
 23
17
 33
0
  0
TEXT
  5
99
100
AcDbEntity
  8
HS_Port
100
AcDbText
370
-1
 10
-15.9
 20
60
 30
0
 40
2
  1
P
 50
0
 41
1
 51
0
  7
TextStyle_IPort
 71
0
 72
0
 11
-15.9
 21
60
 31
0
100
AcDbText
 73
2
  0
CIRCLE
  5
9A
100
AcDbEntity
  8
HS_Symbol
100
AcDbCircle
370
-1
 10
-19
 20
56
 30
0
 40
1
  0
TEXT
  5
9B
100
AcDbEntity
  8
HS_Port
100
AcDbText
370
-1
 10
-15.9
 20
-36
 30
0
 40
2
  1
T
 50
0
 41
1
 51
0
  7
TextStyle_IPort
 71
0
 72
0
 11
-15.9
 21
-36
 31
0
100
AcDbText
 73
2
  0
CIRCLE
  5
9C
100
AcDbEntity
  8
HS_Symbol
100
AcDbCircle
370
-1
 10
-19
 20
-32
 30
0
 40
1
  0
TEXT
  5
9D
100
AcDbEntity
  8
HS_Port
100
AcDbText
370
-1
 10
-0.8
 20
-36
 30
0
 40
2
  1
D1
 50
0
 41
1
 51
0
  7
TextStyle_IPort
 71
0
 72
0
 11
-0.8
 21
-36
 31
0
100
AcDbText
 73
2
  0
CIRCLE
  5
9E
100
AcDbEntity
  8
HS_Symbol
100
AcDbCircle
370
-1
 10
-3
 20
-32
 30
0
 40
1
  0
LINE
  5
9F
100
AcDbEntity
  8
HS_Line
100
AcDbLine
370
-1
 10
-4.5
 20
-33.5
 30
0
 11
-1.5
 21
-30.5
 31
0
  0
LINE
  5
A0
100
AcDbEntity
  8
HS_Line
100
AcDbLine
370
-1
 10
-1.5
 20
-33.5
 30
0
 11
-4.5
 21
-30.5
 31
0
  0
TEXT
  5
A1
100
AcDbEntity
  8
HS_Port
100
AcDbText
370
-1
 10
28.2
 20
-36
 30
0
 40
2
  1
D2
 50
0
 41
1
 51
0
  7
TextStyle_IPort
 71
0
 72
0
 11
28.2
 21
-36
 31
0
100
AcDbText
 73
2
  0
CIRCLE
  5
A2
100
AcDbEntity
  8
HS_Symbol
100
AcDbCircle
370
-1
 10
26
 20
-32
 30
0
 40
1
  0
LINE
  5
A3
100
AcDbEntity
  8
HS_Connection_Line
100
AcDbLine
370
-1
 10
-19
 20
28
 30
0
 11
-19
 21
-31
 31
0
  0
LINE
  5
A4
100
AcDbEntity
  8
HS_Connection_Line
100
AcDbLine
370
-1
 10
-19
 20
55
 30
0
 11
-19
 21
48
 31
0
  0
LINE
  5
A5
100
AcDbEntity
  8
HS_Connection_Line
100
AcDbLine
370
-1
  6
HS_Hidden
 10
1
 20
-10
 30
0
 11
9
 21
-10
 31
0
  0
LINE
  5
A6
100
AcDbEntity
  8
HS_Connection_Line
100
AcDbLine
370
-1
  6
HS_Hidden
 10
9
 20
-10
 30
0
 11
9
 21
-28
 31
0
  0
CIRCLE
  5
A7
100
AcDbEntity
  8
HS_Connection_Line
100
AcDbCircle
370
-1
  6
HS_Solid
 10
-3
 20
-28
 30
0
 40
0.8
  0
LWPOLYLINE
  5
A8
100
AcDbEntity
  8
HS_Connection_Line
100
AcDbPolyline
  6
HS_Solid
 38
0
 90
34
 70
0
 10
-3.36649827783268
 20
-27.2888888888889
 10
-2.63350172216732
 20
-27.2888888888889
 10
-3.50283148884377
 20
-27.3777777777778
 10
-2.49716851115623
 20
-27.3777777777778
 10
-3.59628479399994
 20
-27.4666666666667
 10
-2.40371520600006
 20
-27.4666666666667
 10
-3.66518353542648
 20
-27.5555555555556
 10
-2.33481646457352
 20
-27.5555555555556
 10
-3.71664513318209
 20
-27.6444444444444
 10
-2.28335486681791
 20
-27.6444444444444
 10
-3.75424723326565
 20
-27.7333333333333
 10
-2.24575276673435
 20
-27.7333333333333
 10
-3.77999683443486
 20
-27.8222222222222
 10
-2.22000316556514
 20
-27.8222222222222
 10
-3.79504639199993
 20
-27.9111111111111
 10
-2.20495360800007
 20
-27.9111111111111
 10
-3.8
 20
-28
 10
-2.2
 20
-28
 10
-3.79504639199993
 20
-28.0888888888889
 10
-2.20495360800007
 20
-28.0888888888889
 10
-3.77999683443486
 20
-28.1777777777778
 10
-2.22000316556514
 20
-28.1777777777778
 10
-3.75424723326565
 20
-28.2666666666667
 10
-2.24575276673435
 20
-28.2666666666667
 10
-3.71664513318209
 20
-28.3555555555556
 10
-2.28335486681791
 20
-28.3555555555556
 10
-3.66518353542648
 20
-28.4444444444444
 10
-2.33481646457352
 20
-28.4444444444444
 10
-3.59628479399994
 20
-28.5333333333333
 10
-2.40371520600006
 20
-28.5333333333333
 10
-3.50283148884377
 20
-28.6222222222222
 10
-2.49716851115623
 20
-28.6222222222222
 10
-3.36649827783268
 20
-28.7111111111111
 10
-2.63350172216732
 20
-28.7111111111111
  0
LINE
  5
A9
100
AcDbEntity
  8
HS_Connection_Line
100
AcDbLine
370
-1
 10
-3
 20
-28
 30
0
 11
-3
 21
-31
 31
0
  0
LINE
  5
AA
100
AcDbEntity
  8
HS_Connection_Line
100
AcDbLine
370
-1
  6
HS_Hidden
 10
-14.8
 20
29.7
 30
0
 11
-14.8
 21
-28
 31
0
  0
LINE
  5
AB
100
AcDbEntity
  8
HS_Connection_Line
100
AcDbLine
370
-1
  6
HS_Hidden
 10
-14.8
 20
-28
 30
0
 11
-3
 21
-28
 31
0
  0
CIRCLE
  5
AC
100
AcDbEntity
  8
HS_Connection_Line
100
AcDbCircle
370
-1
  6
HS_Solid
 10
-19
 20
48
 30
0
 40
0.8
  0
LWPOLYLINE
  5
AD
100
AcDbEntity
  8
HS_Connection_Line
100
AcDbPolyline
  6
HS_Solid
 38
0
 90
34
 70
0
 10
-19.3664982778327
 20
48.7111111111111
 10
-18.6335017221673
 20
48.7111111111111
 10
-19.5028314888438
 20
48.6222222222222
 10
-18.4971685111562
 20
48.6222222222222
 10
-19.5962847939999
 20
48.5333333333333
 10
-18.4037152060001
 20
48.5333333333333
 10
-19.6651835354265
 20
48.4444444444445
 10
-18.3348164645735
 20
48.4444444444445
 10
-19.7166451331821
 20
48.3555555555556
 10
-18.2833548668179
 20
48.3555555555556
 10
-19.7542472332657
 20
48.2666666666667
 10
-18.2457527667344
 20
48.2666666666667
 10
-19.7799968344349
 20
48.1777777777778
 10
-18.2200031655651
 20
48.1777777777778
 10
-19.7950463919999
 20
48.0888888888889
 10
-18.2049536080001
 20
48.0888888888889
 10
-19.8
 20
48
 10
-18.2
 20
48
 10
-19.7950463919999
 20
47.9111111111111
 10
-18.2049536080001
 20
47.9111111111111
 10
-19.7799968344349
 20
47.8222222222222
 10
-18.2200031655651
 20
47.8222222222222
 10
-19.7542472332657
 20
47.7333333333333
 10
-18.2457527667344
 20
47.7333333333333
 10
-19.7166451331821
 20
47.6444444444444
 10
-18.2833548668179
 20
47.6444444444444
 10
-19.6651835354265
 20
47.5555555555556
 10
-18.3348164645735
 20
47.5555555555556
 10
-19.5962847939999
 20
47.4666666666667
 10
-18.4037152060001
 20
47.4666666666667
 10
-19.5028314888438
 20
47.3777777777778
 10
-18.4971685111562
 20
47.3777777777778
 10
-19.3664982778327
 20
47.2888888888889
 10
-18.6335017221673
 20
47.2888888888889
  0
LINE
  5
AE
100
AcDbEntity
  8
HS_Connection_Line
100
AcDbLine
370
-1
 10
-19
 20
48
 30
0
 11
-19
 21
40
 31
0
  0
LINE
  5
AF
100
AcDbEntity
  8
HS_Connection_Line
100
AcDbLine
370
-1
 10
-19
 20
48
 30
0
 11
-19
 21
48
 31
0
  0
LINE
  5
B0
100
AcDbEntity
  8
HS_IBorder
100
AcDbLine
370
-1
 10
-43
 20
-32
 30
0
 11
-43
 21
56
 31
0
  0
LINE
  5
B1
100
AcDbEntity
  8
HS_IBorder
100
AcDbLine
370
-1
 10
-43
 20
56
 30
0
 11
-20
 21
56
 31
0
  0
LINE
  5
B2
100
AcDbEntity
  8
HS_IBorder
100
AcDbLine
370
-1
 10
-18
 20
56
 30
0
 11
48
 21
56
 31
0
  0
LINE
  5
B3
100
AcDbEntity
  8
HS_IBorder
100
AcDbLine
370
-1
 10
50
 20
56
 30
0
 11
57
 21
56
 31
0
  0
LINE
  5
B4
100
AcDbEntity
  8
HS_IBorder
100
AcDbLine
370
-1
 10
57
 20
-32
 30
0
 11
57
 21
56
 31
0
  0
LINE
  5
B5
100
AcDbEntity
  8
HS_IBorder
100
AcDbLine
370
-1
 10
-43
 20
-32
 30
0
 11
-20
 21
-32
 31
0
  0
LINE
  5
B6
100
AcDbEntity
  8
HS_IBorder
100
AcDbLine
370
-1
 10
-18
 20
-32
 30
0
 11
-4
 21
-32
 31
0
  0
LINE
  5
B7
100
AcDbEntity
  8
HS_IBorder
100
AcDbLine
370
-1
 10
-2
 20
-32
 30
0
 11
25
 21
-32
 31
0
  0
LINE
  5
B8
100
AcDbEntity
  8
HS_IBorder
100
AcDbLine
370
-1
 10
27
 20
-32
 30
0
 11
57
 21
-32
 31
0
  0
LINE
  5
B9
100
AcDbEntity
  8
HS_Symbol
100
AcDbLine
370
-1
 10
14
 20
6
 30
0
 11
20
 21
6
 31
0
  0
SOLID
  5
BA
100
AcDbEntity
  8
HS_Symbol
100
AcDbTrace
370
-1
  6
HS_Solid
 10
20
 20
6.53589838486225
 30
0
 11
20
 21
5.46410161513775
 31
0
 12
22
 22
6
 32
0
 13
22
 23
6
 33
0
  0
LINE
  5
BB
100
AcDbEntity
  8
HS_Symbol
100
AcDbLine
370
-1
 10
22
 20
18
 30
0
 11
15.7888543819998
 21
14.8944271909999
 31
0
  0
SOLID
  5
BC
100
AcDbEntity
  8
HS_Symbol
100
AcDbTrace
370
-1
  6
HS_Solid
 10
16.0285154255167
 20
14.4151051039662
 30
0
 11
15.549193338483
 21
15.3737492780336
 31
0
 12
14
 22
14
 32
0
 13
14
 23
14
 33
0
  0
LWPOLYLINE
  5
BD
100
AcDbEntity
  8
HS_Symbol
100
AcDbPolyline
370
-1
 38
0
 90
4
 70
1
 10
22
 20
20
 10
14
 20
20
 10
14
 20
4
 10
22
 20
4
  0
LINE
  5
BE
100
AcDbEntity
  8
HS_Symbol
100
AcDbLine
370
-1
 10
22
 20
12
 30
0
 11
14
 21
12
 31
0
  0
LINE
  5
BF
100
AcDbEntity
  8
HS_Symbol
100
AcDbLine
370
-1
 10
13
 20
20
 30
0
 11
13
 21
4
 31
0
  0
LINE
  5
C0
100
AcDbEntity
  8
HS_Symbol
100
AcDbLine
370
-1
 10
23
 20
4
 30
0
 11
23
 21
20
 31
0
  0
LWPOLYLINE
  5
C1
100
AcDbEntity
  8
HS_Symbol
100
AcDbPolyline
370
-1
 38
0
 90
8
 70
0
 10
16
 20
4
 10
18
 20
3.58333333333333
 10
14
 20
2.75
 10
18
 20
1.91666666666667
 10
14
 20
1.08333333333333
 10
18
 20
0.25
 10
14
 20
-0.583333333333333
 10
16
 20
-1
  0
LINE
  5
C2
100
AcDbEntity
  8
HS_Symbol
100
AcDbLine
370
-1
 10
22
 20
14
 30
0
 11
20
 21
14
 31
0
  0
LINE
  5
C3
100
AcDbEntity
  8
HS_Symbol
100
AcDbLine
370
-1
 10
20
 20
13
 30
0
 11
20
 21
15
 31
0
  0
LINE
  5
C4
100
AcDbEntity
  8
HS_Symbol
100
AcDbLine
370
-1
 10
22
 20
10
 30
0
 11
20
 21
10
 31
0
  0
LINE
  5
C5
100
AcDbEntity
  8
HS_Symbol
100
AcDbLine
370
-1
 10
20
 20
9
 30
0
 11
20
 21
11
 31
0
  0
LINE
  5
C6
100
AcDbEntity
  8
HS_Symbol
100
AcDbLine
370
-1
 10
11
 20
3
 30
0
 11
19.0843474295577
 21
0.574695771132691
 31
0
  0
SOLID
  5
C7
100
AcDbEntity
  8
HS_Symbol
100
AcDbTrace
370
-1
  6
HS_Solid
 10
19.2383366973263
 20
1.08799333036131
 30
0
 11
18.9303581617891
 21
0.0613982119040713
 31
0
 12
21
 22
0
 32
0
 13
21
 23
0
 33
0
  0
CIRCLE
  5
C8
100
AcDbEntity
  8
HS_Connection_Line
100
AcDbCircle
370
-1
  6
HS_Solid
 10
9
 20
-10
 30
0
 40
0.8
  0
LWPOLYLINE
  5
C9
100
AcDbEntity
  8
HS_Connection_Line
100
AcDbPolyline
  6
HS_Solid
 38
0
 90
34
 70
0
 10
8.63350172216732
 20
-9.28888888888889
 10
9.36649827783268
 20
-9.28888888888889
 10
8.49716851115623
 20
-9.37777777777778
 10
9.50283148884377
 20
-9.37777777777778
 10
8.40371520600006
 20
-9.46666666666667
 10
9.59628479399994
 20
-9.46666666666667
 10
8.33481646457352
 20
-9.55555555555556
 10
9.66518353542648
 20
-9.55555555555556
 10
8.28335486681791
 20
-9.64444444444445
 10
9.71664513318209
 20
-9.64444444444445
 10
8.24575276673435
 20
-9.73333333333333
 10
9.75424723326565
 20
-9.73333333333333
 10
8.22000316556514
 20
-9.82222222222222
 10
9.77999683443486
 20
-9.82222222222222
 10
8.20495360800007
 20
-9.91111111111111
 10
9.79504639199993
 20
-9.91111111111111
 10
8.2
 20
-10
 10
9.8
 20
-10
 10
8.20495360800007
 20
-10.0888888888889
 10
9.79504639199993
 20
-10.0888888888889
 10
8.22000316556514
 20
-10.1777777777778
 10
9.77999683443486
 20
-10.1777777777778
 10
8.24575276673435
 20
-10.2666666666667
 10
9.75424723326565
 20
-10.2666666666667
 10
8.28335486681791
 20
-10.3555555555556
 10
9.71664513318209
 20
-10.3555555555556
 10
8.33481646457352
 20
-10.4444444444444
 10
9.66518353542648
 20
-10.4444444444444
 10
8.40371520600006
 20
-10.5333333333333
 10
9.59628479399994
 20
-10.5333333333333
 10
8.49716851115623
 20
-10.6222222222222
 10
9.50283148884377
 20
-10.6222222222222
 10
8.63350172216732
 20
-10.7111111111111
 10
9.36649827783268
 20
-10.7111111111111
  0
LINE
  5
CA
100
AcDbEntity
  8
HS_Connection_Line
100
AcDbLine
370
-1
  6
HS_Hidden
 10
14
 20
6
 30
0
 11
9
 21
6
 31
0
  0
LINE
  5
CB
100
AcDbEntity
  8
HS_Connection_Line
100
AcDbLine
370
-1
  6
HS_Hidden
 10
9
 20
6
 30
0
 11
9
 21
-10
 31
0
  0
LINE
  5
CC
100
AcDbEntity
  8
HS_Connection_Line
100
AcDbLine
370
-1
  6
HS_Hidden
 10
22
 20
6
 30
0
 11
25
 21
6
 31
0
  0
LINE
  5
CD
100
AcDbEntity
  8
HS_Connection_Line
100
AcDbLine
370
-1
  6
HS_Hidden
 10
22
 20
10
 30
0
 11
26
 21
10
 31
0
  0
LINE
  5
CE
100
AcDbEntity
  8
HS_Connection_Line
100
AcDbLine
370
-1
  6
HS_Hidden
 10
26
 20
10
 30
0
 11
26
 21
28
 31
0
  0
LINE
  5
CF
100
AcDbEntity
  8
HS_Connection_Line
100
AcDbLine
370
-1
  6
HS_Hidden
 10
26
 20
28
 30
0
 11
18
 21
28
 31
0
  0
CIRCLE
  5
D0
100
AcDbEntity
  8
HS_Connection_Line
100
AcDbCircle
370
-1
  6
HS_Solid
 10
-19
 20
48
 30
0
 40
0.8
  0
LWPOLYLINE
  5
D1
100
AcDbEntity
  8
HS_Connection_Line
100
AcDbPolyline
  6
HS_Solid
 38
0
 90
34
 70
0
 10
-19.3664982778327
 20
48.7111111111111
 10
-18.6335017221673
 20
48.7111111111111
 10
-19.5028314888438
 20
48.6222222222222
 10
-18.4971685111562
 20
48.6222222222222
 10
-19.5962847939999
 20
48.5333333333333
 10
-18.4037152060001
 20
48.5333333333333
 10
-19.6651835354265
 20
48.4444444444445
 10
-18.3348164645735
 20
48.4444444444445
 10
-19.7166451331821
 20
48.3555555555556
 10
-18.2833548668179
 20
48.3555555555556
 10
-19.7542472332657
 20
48.2666666666667
 10
-18.2457527667344
 20
48.2666666666667
 10
-19.7799968344349
 20
48.1777777777778
 10
-18.2200031655651
 20
48.1777777777778
 10
-19.7950463919999
 20
48.0888888888889
 10
-18.2049536080001
 20
48.0888888888889
 10
-19.8
 20
48
 10
-18.2
 20
48
 10
-19.7950463919999
 20
47.9111111111111
 10
-18.2049536080001
 20
47.9111111111111
 10
-19.7799968344349
 20
47.8222222222222
 10
-18.2200031655651
 20
47.8222222222222
 10
-19.7542472332657
 20
47.7333333333333
 10
-18.2457527667344
 20
47.7333333333333
 10
-19.7166451331821
 20
47.6444444444444
 10
-18.2833548668179
 20
47.6444444444444
 10
-19.6651835354265
 20
47.5555555555556
 10
-18.3348164645735
 20
47.5555555555556
 10
-19.5962847939999
 20
47.4666666666667
 10
-18.4037152060001
 20
47.4666666666667
 10
-19.5028314888438
 20
47.3777777777778
 10
-18.4971685111562
 20
47.3777777777778
 10
-19.3664982778327
 20
47.2888888888889
 10
-18.6335017221673
 20
47.2888888888889
  0
CIRCLE
  5
D2
100
AcDbEntity
  8
HS_Connection_Line
100
AcDbCircle
370
-1
  6
HS_Solid
 10
18
 20
28
 30
0
 40
0.8
  0
LWPOLYLINE
  5
D3
100
AcDbEntity
  8
HS_Connection_Line
100
AcDbPolyline
  6
HS_Solid
 38
0
 90
34
 70
0
 10
17.6335017221673
 20
28.7111111111111
 10
18.3664982778327
 20
28.7111111111111
 10
17.4971685111562
 20
28.6222222222222
 10
18.5028314888438
 20
28.6222222222222
 10
17.4037152060001
 20
28.5333333333333
 10
18.5962847939999
 20
28.5333333333333
 10
17.3348164645735
 20
28.4444444444444
 10
18.6651835354265
 20
28.4444444444444
 10
17.2833548668179
 20
28.3555555555556
 10
18.7166451331821
 20
28.3555555555556
 10
17.2457527667344
 20
28.2666666666667
 10
18.7542472332657
 20
28.2666666666667
 10
17.2200031655651
 20
28.1777777777778
 10
18.7799968344349
 20
28.1777777777778
 10
17.2049536080001
 20
28.0888888888889
 10
18.7950463919999
 20
28.0888888888889
 10
17.2
 20
28
 10
18.8
 20
28
 10
17.2049536080001
 20
27.9111111111111
 10
18.7950463919999
 20
27.9111111111111
 10
17.2200031655651
 20
27.8222222222222
 10
18.7799968344349
 20
27.8222222222222
 10
17.2457527667344
 20
27.7333333333333
 10
18.7542472332657
 20
27.7333333333333
 10
17.2833548668179
 20
27.6444444444444
 10
18.7166451331821
 20
27.6444444444444
 10
17.3348164645735
 20
27.5555555555556
 10
18.6651835354265
 20
27.5555555555556
 10
17.4037152060001
 20
27.4666666666667
 10
18.5962847939999
 20
27.4666666666667
 10
17.4971685111562
 20
27.3777777777778
 10
18.5028314888438
 20
27.3777777777778
 10
17.6335017221673
 20
27.2888888888889
 10
18.3664982778327
 20
27.2888888888889
  0
LINE
  5
D4
100
AcDbEntity
  8
HS_Connection_Line
100
AcDbLine
370
-1
  6
HS_Hidden
 10
-19
 20
48
 30
0
 11
-27
 21
48
 31
0
  0
LINE
  5
D5
100
AcDbEntity
  8
HS_Connection_Line
100
AcDbLine
370
-1
  6
HS_Hidden
 10
-27
 20
48
 30
0
 11
-27
 21
10
 31
0
  0
LINE
  5
D6
100
AcDbEntity
  8
HS_Connection_Line
100
AcDbLine
370
-1
  6
HS_Hidden
 10
-27
 20
10
 30
0
 11
-31
 21
10
 31
0
  0
LINE
  5
D7
100
AcDbEntity
  8
HS_Connection_Line
100
AcDbLine
370
-1
  6
HS_Hidden
 10
18
 20
28
 30
0
 11
18
 21
20
 31
0
  0
LINE
  5
D8
100
AcDbEntity
  8
HS_Connection_Line
100
AcDbLine
370
-1
  6
HS_Hidden
 10
-19
 20
48
 30
0
 11
18
 21
48
 31
0
  0
TEXT
  5
D9
100
AcDbEntity
  8
HS_Port
100
AcDbText
370
-1
 10
52.1
 20
60
 30
0
 40
2
  1
X
 50
0
 41
1
 51
0
  7
TextStyle_IPort
 71
0
 72
0
 11
52.1
 21
60
 31
0
100
AcDbText
 73
2
  0
CIRCLE
  5
DA
100
AcDbEntity
  8
HS_Symbol
100
AcDbCircle
370
-1
 10
49
 20
56
 30
0
 40
1
  0
LINE
  5
DB
100
AcDbEntity
  8
HS_Connection_Line
100
AcDbLine
370
-1
  6
HS_Hidden
 10
49
 20
55
 30
0
 11
49
 21
48
 31
0
  0
LINE
  5
DC
100
AcDbEntity
  8
HS_Orifice
100
AcDbLine
370
-1
 10
32
 20
48
 30
0
 11
36
 21
48
 31
0
  0
CIRCLE
  5
DD
100
AcDbEntity
  8
HS_Orifice
100
AcDbCircle
370
-1
 10
34
 20
48
 30
0
 40
2
  0
ARC
  5
DE
100
AcDbEntity
  8
HS_Orifice
100
AcDbCircle
370
-1
 10
34
 20
50.3
 30
0
 40
1.5
100
AcDbArc
 50
228.189685104221
 51
311.810314895779
  0
ARC
  5
DF
100
AcDbEntity
  8
HS_Orifice
100
AcDbCircle
370
-1
 10
34
 20
45.7
 30
0
 40
1.5
100
AcDbArc
 50
48.1896851042215
 51
131.810314895779
  0
CIRCLE
  5
E0
100
AcDbEntity
  8
HS_Connection_Line
100
AcDbCircle
370
-1
  6
HS_Solid
 10
18
 20
48
 30
0
 40
0.8
  0
LWPOLYLINE
  5
E1
100
AcDbEntity
  8
HS_Connection_Line
100
AcDbPolyline
  6
HS_Solid
 38
0
 90
34
 70
0
 10
17.6335017221673
 20
48.7111111111111
 10
18.3664982778327
 20
48.7111111111111
 10
17.4971685111562
 20
48.6222222222222
 10
18.5028314888438
 20
48.6222222222222
 10
17.4037152060001
 20
48.5333333333333
 10
18.5962847939999
 20
48.5333333333333
 10
17.3348164645735
 20
48.4444444444445
 10
18.6651835354265
 20
48.4444444444445
 10
17.2833548668179
 20
48.3555555555556
 10
18.7166451331821
 20
48.3555555555556
 10
17.2457527667344
 20
48.2666666666667
 10
18.7542472332657
 20
48.2666666666667
 10
17.2200031655651
 20
48.1777777777778
 10
18.7799968344349
 20
48.1777777777778
 10
17.2049536080001
 20
48.0888888888889
 10
18.7950463919999
 20
48.0888888888889
 10
17.2
 20
48
 10
18.8
 20
48
 10
17.2049536080001
 20
47.9111111111111
 10
18.7950463919999
 20
47.9111111111111
 10
17.2200031655651
 20
47.8222222222222
 10
18.7799968344349
 20
47.8222222222222
 10
17.2457527667344
 20
47.7333333333333
 10
18.7542472332657
 20
47.7333333333333
 10
17.2833548668179
 20
47.6444444444444
 10
18.7166451331821
 20
47.6444444444444
 10
17.3348164645735
 20
47.5555555555556
 10
18.6651835354265
 20
47.5555555555556
 10
17.4037152060001
 20
47.4666666666667
 10
18.5962847939999
 20
47.4666666666667
 10
17.4971685111562
 20
47.3777777777778
 10
18.5028314888438
 20
47.3777777777778
 10
17.6335017221673
 20
47.2888888888889
 10
18.3664982778327
 20
47.2888888888889
  0
LINE
  5
E2
100
AcDbEntity
  8
HS_Connection_Line
100
AcDbLine
370
-1
  6
HS_Hidden
 10
18
 20
48
 30
0
 11
18
 21
28
 31
0
  0
LINE
  5
E3
100
AcDbEntity
  8
HS_Connection_Line
100
AcDbLine
370
-1
  6
HS_Hidden
 10
32
 20
48
 30
0
 11
18
 21
48
 31
0
  0
LWPOLYLINE
  5
E4
100
AcDbEntity
  8
HS_Symbol
100
AcDbPolyline
370
-1
 38
0
 90
4
 70
1
 10
42
 20
12
 10
34
 20
12
 10
34
 20
4
 10
42
 20
4
  0
LINE
  5
E5
100
AcDbEntity
  8
HS_Symbol
100
AcDbLine
370
-1
 10
34
 20
10
 30
0
 11
40
 21
10
 31
0
  0
SOLID
  5
E6
100
AcDbEntity
  8
HS_Symbol
100
AcDbTrace
370
-1
  6
HS_Solid
 10
40
 20
10.5358983848622
 30
0
 11
40
 21
9.46410161513776
 31
0
 12
42
 22
10
 32
0
 13
42
 23
10
 33
0
  0
LINE
  5
E7
100
AcDbEntity
  8
HS_Pilot
100
AcDbLine
370
-1
 10
34
 20
8
 30
0
 11
30
 21
12
 31
0
  0
LINE
  5
E8
100
AcDbEntity
  8
HS_Pilot
100
AcDbLine
370
-1
 10
30
 20
12
 30
0
 11
30
 21
16
 31
0
  0
LINE
  5
E9
100
AcDbEntity
  8
HS_Pilot
100
AcDbLine
370
-1
 10
30
 20
16
 30
0
 11
36
 21
16
 31
0
  0
LINE
  5
EA
100
AcDbEntity
  8
HS_Pilot
100
AcDbLine
370
-1
 10
36
 20
16
 30
0
 11
36
 21
12
 31
0
  0
LWPOLYLINE
  5
EB
100
AcDbEntity
  8
HS_Symbol
100
AcDbPolyline
370
-1
 38
0
 90
8
 70
0
 10
36
 20
4
 10
38
 20
3.58333333333333
 10
34
 20
2.75
 10
38
 20
1.91666666666667
 10
34
 20
1.08333333333333
 10
38
 20
0.25
 10
34
 20
-0.583333333333333
 10
36
 20
-1
  0
LINE
  5
EC
100
AcDbEntity
  8
HS_Symbol
100
AcDbLine
370
-1
 10
32.4
 20
2.3
 30
0
 11
39.4476258796321
 21
0.733860915637312
 31
0
  0
SOLID
  5
ED
100
AcDbEntity
  8
HS_Symbol
100
AcDbTrace
370
-1
  6
HS_Solid
 10
39.5638785616045
 20
1.25699798451332
 30
0
 11
39.3313731976597
 21
0.210723846761308
 31
0
 12
41.4
 22
0.3
 32
0
 13
41.4
 23
0.3
 33
0
  0
LINE
  5
EE
100
AcDbEntity
  8
HS_Connection_Line
100
AcDbLine
370
-1
  6
HS_Hidden
 10
25
 20
6
 30
0
 11
26
 21
6
 31
0
  0
ARC
  5
EF
100
AcDbEntity
  8
HS_Connection_Line
100
AcDbCircle
370
-1
  6
HS_Hidden
 10
26
 20
-6
 30
0
 40
1
100
AcDbArc
 50
270
 51
90
  0
LINE
  5
F0
100
AcDbEntity
  8
HS_Connection_Line
100
AcDbLine
370
-1
  6
HS_Hidden
 10
26
 20
6
 30
0
 11
25.9999995191747
 21
-4.99999999999999
 31
0
  0
ARC
  5
F1
100
AcDbEntity
  8
HS_Connection_Line
100
AcDbCircle
370
-1
  6
HS_Hidden
 10
26
 20
-6
 30
0
 40
1
100
AcDbArc
 50
270
 51
90
  0
LINE
  5
F2
100
AcDbEntity
  8
HS_Connection_Line
100
AcDbLine
370
-1
  6
HS_Hidden
 10
25.9999990820608
 20
-7.00000000000002
 30
0
 11
26
 21
-28
 31
0
  0
LINE
  5
F3
100
AcDbEntity
  8
HS_Connection_Line
100
AcDbLine
370
-1
  6
HS_Hidden
 10
34
 20
8
 30
0
 11
30
 21
8
 31
0
  0
LINE
  5
F4
100
AcDbEntity
  8
HS_Connection_Line
100
AcDbLine
370
-1
  6
HS_Hidden
 10
30
 20
8
 30
0
 11
30
 21
-6
 31
0
  0
CIRCLE
  5
F5
100
AcDbEntity
  8
HS_Connection_Line
100
AcDbCircle
370
-1
  6
HS_Solid
 10
9
 20
-28
 30
0
 40
0.8
  0
LWPOLYLINE
  5
F6
100
AcDbEntity
  8
HS_Connection_Line
100
AcDbPolyline
  6
HS_Solid
 38
0
 90
34
 70
0
 10
8.63350172216732
 20
-27.2888888888889
 10
9.36649827783268
 20
-27.2888888888889
 10
8.49716851115623
 20
-27.3777777777778
 10
9.50283148884377
 20
-27.3777777777778
 10
8.40371520600006
 20
-27.4666666666667
 10
9.59628479399994
 20
-27.4666666666667
 10
8.33481646457352
 20
-27.5555555555556
 10
9.66518353542648
 20
-27.5555555555556
 10
8.28335486681791
 20
-27.6444444444444
 10
9.71664513318209
 20
-27.6444444444444
 10
8.24575276673435
 20
-27.7333333333333
 10
9.75424723326565
 20
-27.7333333333333
 10
8.22000316556514
 20
-27.8222222222222
 10
9.77999683443486
 20
-27.8222222222222
 10
8.20495360800007
 20
-27.9111111111111
 10
9.79504639199993
 20
-27.9111111111111
 10
8.2
 20
-28
 10
9.8
 20
-28
 10
8.20495360800007
 20
-28.0888888888889
 10
9.79504639199993
 20
-28.0888888888889
 10
8.22000316556514
 20
-28.1777777777778
 10
9.77999683443486
 20
-28.1777777777778
 10
8.24575276673435
 20
-28.2666666666667
 10
9.75424723326565
 20
-28.2666666666667
 10
8.28335486681791
 20
-28.3555555555556
 10
9.71664513318209
 20
-28.3555555555556
 10
8.33481646457352
 20
-28.4444444444444
 10
9.66518353542648
 20
-28.4444444444444
 10
8.40371520600006
 20
-28.5333333333333
 10
9.59628479399994
 20
-28.5333333333333
 10
8.49716851115623
 20
-28.6222222222222
 10
9.50283148884377
 20
-28.6222222222222
 10
8.63350172216732
 20
-28.7111111111111
 10
9.36649827783268
 20
-28.7111111111111
  0
LINE
  5
F7
100
AcDbEntity
  8
HS_Connection_Line
100
AcDbLine
370
-1
  6
HS_Hidden
 10
9
 20
-28
 30
0
 11
-3
 21
-28
 31
0
  0
LINE
  5
F8
100
AcDbEntity
  8
HS_Connection_Line
100
AcDbLine
370
-1
  6
HS_Hidden
 10
42
 20
8
 30
0
 11
46
 21
8
 31
0
  0
ARC
  5
F9
100
AcDbEntity
  8
HS_Connection_Line
100
AcDbCircle
370
-1
  6
HS_Hidden
 10
46
 20
-6
 30
0
 40
1
100
AcDbArc
 50
270
 51
90
  0
LINE
  5
FA
100
AcDbEntity
  8
HS_Connection_Line
100
AcDbLine
370
-1
  6
HS_Hidden
 10
46
 20
8
 30
0
 11
45.9999994317519
 21
-4.99999999999999
 31
0
  0
ARC
  5
FB
100
AcDbEntity
  8
HS_Connection_Line
100
AcDbCircle
370
-1
  6
HS_Hidden
 10
46
 20
-6
 30
0
 40
1
100
AcDbArc
 50
270
 51
90
  0
LINE
  5
FC
100
AcDbEntity
  8
HS_Connection_Line
100
AcDbLine
370
-1
  6
HS_Hidden
 10
45.9999990820608
 20
-7.00000000000002
 30
0
 11
46
 21
-28
 31
0
  0
LINE
  5
FD
100
AcDbEntity
  8
HS_Connection_Line
100
AcDbLine
370
-1
  6
HS_Hidden
 10
46
 20
-28
 30
0
 11
26
 21
-28
 31
0
  0
CIRCLE
  5
FE
100
AcDbEntity
  8
HS_Connection_Line
100
AcDbCircle
370
-1
  6
HS_Solid
 10
49
 20
48
 30
0
 40
0.8
  0
LWPOLYLINE
  5
FF
100
AcDbEntity
  8
HS_Connection_Line
100
AcDbPolyline
  6
HS_Solid
 38
0
 90
34
 70
0
 10
48.6335017221673
 20
48.7111111111111
 10
49.3664982778327
 20
48.7111111111111
 10
48.4971685111562
 20
48.6222222222222
 10
49.5028314888438
 20
48.6222222222222
 10
48.4037152060001
 20
48.5333333333333
 10
49.5962847939999
 20
48.5333333333333
 10
48.3348164645735
 20
48.4444444444445
 10
49.6651835354265
 20
48.4444444444445
 10
48.2833548668179
 20
48.3555555555556
 10
49.7166451331821
 20
48.3555555555556
 10
48.2457527667343
 20
48.2666666666667
 10
49.7542472332657
 20
48.2666666666667
 10
48.2200031655651
 20
48.1777777777778
 10
49.7799968344349
 20
48.1777777777778
 10
48.2049536080001
 20
48.0888888888889
 10
49.7950463919999
 20
48.0888888888889
 10
48.2
 20
48
 10
49.8
 20
48
 10
48.2049536080001
 20
47.9111111111111
 10
49.7950463919999
 20
47.9111111111111
 10
48.2200031655651
 20
47.8222222222222
 10
49.7799968344349
 20
47.8222222222222
 10
48.2457527667343
 20
47.7333333333333
 10
49.7542472332657
 20
47.7333333333333
 10
48.2833548668179
 20
47.6444444444444
 10
49.7166451331821
 20
47.6444444444444
 10
48.3348164645735
 20
47.5555555555556
 10
49.6651835354265
 20
47.5555555555556
 10
48.4037152060001
 20
47.4666666666667
 10
49.5962847939999
 20
47.4666666666667
 10
48.4971685111562
 20
47.3777777777778
 10
49.5028314888438
 20
47.3777777777778
 10
48.6335017221673
 20
47.2888888888889
 10
49.3664982778327
 20
47.2888888888889
  0
CIRCLE
  5
100
100
AcDbEntity
  8
HS_Connection_Line
100
AcDbCircle
370
-1
  6
HS_Solid
 10
30
 20
-6
 30
0
 40
0.8
  0
LWPOLYLINE
  5
101
100
AcDbEntity
  8
HS_Connection_Line
100
AcDbPolyline
  6
HS_Solid
 38
0
 90
34
 70
0
 10
29.6335017221673
 20
-5.28888888888889
 10
30.3664982778327
 20
-5.28888888888889
 10
29.4971685111562
 20
-5.37777777777778
 10
30.5028314888438
 20
-5.37777777777778
 10
29.4037152060001
 20
-5.46666666666667
 10
30.5962847939999
 20
-5.46666666666667
 10
29.3348164645735
 20
-5.55555555555556
 10
30.6651835354265
 20
-5.55555555555556
 10
29.2833548668179
 20
-5.64444444444444
 10
30.7166451331821
 20
-5.64444444444444
 10
29.2457527667343
 20
-5.73333333333333
 10
30.7542472332657
 20
-5.73333333333333
 10
29.2200031655651
 20
-5.82222222222222
 10
30.7799968344349
 20
-5.82222222222222
 10
29.2049536080001
 20
-5.91111111111111
 10
30.7950463919999
 20
-5.91111111111111
 10
29.2
 20
-6
 10
30.8
 20
-6
 10
29.2049536080001
 20
-6.08888888888889
 10
30.7950463919999
 20
-6.08888888888889
 10
29.2200031655651
 20
-6.17777777777778
 10
30.7799968344349
 20
-6.17777777777778
 10
29.2457527667343
 20
-6.26666666666667
 10
30.7542472332657
 20
-6.26666666666667
 10
29.2833548668179
 20
-6.35555555555556
 10
30.7166451331821
 20
-6.35555555555556
 10
29.3348164645735
 20
-6.44444444444444
 10
30.6651835354265
 20
-6.44444444444444
 10
29.4037152060001
 20
-6.53333333333333
 10
30.5962847939999
 20
-6.53333333333333
 10
29.4971685111562
 20
-6.62222222222222
 10
30.5028314888438
 20
-6.62222222222222
 10
29.6335017221673
 20
-6.71111111111111
 10
30.3664982778327
 20
-6.71111111111111
  0
LINE
  5
102
100
AcDbEntity
  8
HS_Connection_Line
100
AcDbLine
370
-1
  6
HS_Hidden
 10
49
 20
48
 30
0
 11
36
 21
48
 31
0
  0
LINE
  5
103
100
AcDbEntity
  8
HS_Connection_Line
100
AcDbLine
370
-1
  6
HS_Hidden
 10
30
 20
-6
 30
0
 11
19
 21
-6
 31
0
  0
LINE
  5
104
100
AcDbEntity
  8
HS_Connection_Line
100
AcDbLine
370
-1
  6
HS_Hidden
 10
19
 20
-6
 30
0
 11
19
 21
4
 31
0
  0
LINE
  5
105
100
AcDbEntity
  8
HS_Connection_Line
100
AcDbLine
370
-1
  6
HS_Hidden
 10
19
 20
4
 30
0
 11
20
 21
4
 31
0
  0
LINE
  5
106
100
AcDbEntity
  8
HS_Connection_Line
100
AcDbLine
370
-1
  6
HS_Hidden
 10
49
 20
48
 30
0
 11
49
 21
-6
 31
0
  0
LINE
  5
107
100
AcDbEntity
  8
HS_Connection_Line
100
AcDbLine
370
-1
  6
HS_Hidden
 10
49
 20
-6
 30
0
 11
30
 21
-6
 31
0
  0
CIRCLE
  5
108
100
AcDbEntity
  8
HS_Connection_Line
100
AcDbCircle
370
-1
  6
HS_Solid
 10
26
 20
-28
 30
0
 40
0.8
  0
LWPOLYLINE
  5
109
100
AcDbEntity
  8
HS_Connection_Line
100
AcDbPolyline
  6
HS_Solid
 38
0
 90
34
 70
0
 10
25.6335017221673
 20
-27.2888888888889
 10
26.3664982778327
 20
-27.2888888888889
 10
25.4971685111562
 20
-27.3777777777778
 10
26.5028314888438
 20
-27.3777777777778
 10
25.4037152060001
 20
-27.4666666666667
 10
26.5962847939999
 20
-27.4666666666667
 10
25.3348164645735
 20
-27.5555555555556
 10
26.6651835354265
 20
-27.5555555555556
 10
25.2833548668179
 20
-27.6444444444444
 10
26.7166451331821
 20
-27.6444444444444
 10
25.2457527667344
 20
-27.7333333333333
 10
26.7542472332657
 20
-27.7333333333333
 10
25.2200031655651
 20
-27.8222222222222
 10
26.7799968344349
 20
-27.8222222222222
 10
25.2049536080001
 20
-27.9111111111111
 10
26.7950463919999
 20
-27.9111111111111
 10
25.2
 20
-28
 10
26.8
 20
-28
 10
25.2049536080001
 20
-28.0888888888889
 10
26.7950463919999
 20
-28.0888888888889
 10
25.2200031655651
 20
-28.1777777777778
 10
26.7799968344349
 20
-28.1777777777778
 10
25.2457527667344
 20
-28.2666666666667
 10
26.7542472332657
 20
-28.2666666666667
 10
25.2833548668179
 20
-28.3555555555556
 10
26.7166451331821
 20
-28.3555555555556
 10
25.3348164645735
 20
-28.4444444444444
 10
26.6651835354265
 20
-28.4444444444444
 10
25.4037152060001
 20
-28.5333333333333
 10
26.5962847939999
 20
-28.5333333333333
 10
25.4971685111562
 20
-28.6222222222222
 10
26.5028314888438
 20
-28.6222222222222
 10
25.6335017221673
 20
-28.7111111111111
 10
26.3664982778327
 20
-28.7111111111111
  0
LINE
  5
10A
100
AcDbEntity
  8
HS_Connection_Line
100
AcDbLine
370
-1
  6
HS_Hidden
 10
26
 20
-28
 30
0
 11
9
 21
-28
 31
0
  0
LINE
  5
10B
100
AcDbEntity
  8
HS_Orifice
100
AcDbLine
370
-1
 10
9
 20
-21
 30
0
 11
9
 21
-17
 31
0
  0
CIRCLE
  5
10C
100
AcDbEntity
  8
HS_Orifice
100
AcDbCircle
370
-1
 10
9
 20
-19
 30
0
 40
2
  0
ARC
  5
10D
100
AcDbEntity
  8
HS_Orifice
100
AcDbCircle
370
-1
 10
6.70000000000001
 20
-19.0000002010724
 30
0
 40
1.5
100
AcDbArc
 50
318.189690471016
 51
41.8103202625727
  0
ARC
  5
10E
100
AcDbEntity
  8
HS_Orifice
100
AcDbCircle
370
-1
 10
11.3
 20
-19
 30
0
 40
1.5
100
AcDbArc
 50
138.189684746384
 51
221.810314537941
  0
ENDSEC
  0
SECTION
  2
OBJECTS
  0
DICTIONARY
  5
10F
100
AcDbDictionary
  3
ACAD_GROUP
350
110
  3
ACAD_MATERIAL
350
111
  3
ACAD_WIPEOUT_VARS
350
112
  3
ACAD_MLINESTYLE
350
113
  3
ACAD_LAYOUT
350
114
  0
DICTIONARY
  5
110
330
10F
100
AcDbDictionary
  0
DICTIONARY
  5
111
330
10F
100
AcDbDictionary
  0
WIPEOUTVARIABLES
  5
112
330
10F
100
AcDbWipeoutVariables
 70
1
  0
DICTIONARY
  5
113
330
10F
100
AcDbDictionary
  3
STANDARD
350
115
  0
MLINESTYLE
  5
115
100
AcDbMlineStyle
  2
STANDARD
 70
0
  3

 62
256
 51
90
 52
90
 71
2
 49
0.5
 62
256
  6
ByLayer
 49
-0.5
 62
256
  6
ByLayer
  0
DICTIONARY
  5
114
100
AcDbDictionary
281
1
  3
Model
350
13
  0
LAYOUT
  5
13
102
{ACAD_REACTORS
330
114
102
}
330
114
100
AcDbPlotSettings
  1

  2
none_device
  4

  6

 40
0
 41
0
 42
0
 43
0
 44
0
 45
0
 46
0
 47
0
 48
0
 49
0
 70
1712
 72
1
 73
0
 74
5
 75
16
 76
0
 77
0
 78
100
140
0
141
0
142
1
143
1
147
1
148
0
149
0
100
AcDbLayout
  1
Model
 70
1
 71
1
 10
-51
 20
-33.5
 11
57
 21
56
 12
0
 22
0
 32
0
 14
-51
 24
-33.5
 34
0
 15
57
 25
56
 35
0
146
0
 13
0
 23
0
 33
0
 16
1
 26
0
 36
0
 17
0
 27
1
 37
0
 76
0
330
63
  0
DICTIONARY
  5
116
100
AcDbDictionary
280
1
  3
XINFO
360
117
  0
XRECORD
  5
117
102
{ACAD_REACTORS
330
116
102
}
330
116
100
AcDbXrecord
280
0
310
000000007D00E807
311
BE173D89B26AA511
  0
ENDSEC
  0
EOF
