0
SECTION
2
HEADER
9
$INSUNITS
70
5
9
$ACADVER
1
AC1014
9
$HANDSEED
5
FFFF
0
ENDSEC
0
SECTION
2
TABLES
0
TABLE
2
VPORT
5
8
100
AcDbSymbolTable
0
ENDTAB
0
TABLE
2
LTYPE
5
5
100
AcDbSymbolTable
0
LTYPE
5
14
100
AcDbSymbolTableRecord
100
AcDbLinetypeTableRecord
2
BYBLOCK
70
0
0
LTYPE
5
15
100
AcDbSymbolTableRecord
100
AcDbLinetypeTableRecord
2
BYLAYER
70
0
0
ENDTAB
0
TABLE
2
LAYER
5
2
100
AcDbSymbolTable
70
2
0
LAYER
5
50
100
AcDbSymbolTableRecord
100
AcDbLayerTableRecord
2
0
70
0
6
CONTINUOUS
0
ENDTAB
0
TABLE
2
STYLE
5
3
100
AcDbSymbolTable
70
1
0
STYLE
5
11
100
AcDbSymbolTableRecord
100
AcDbTextStyleTableRecord
2
STANDARD
70
0
0
ENDTAB
0
TABLE
2
VIEW
5
6
100
AcDbSymbolTable
70
0
0
ENDTAB
0
TABLE
2
UCS
5
7
100
AcDbSymbolTable
70
0
0
ENDTAB
0
TABLE
2
APPID
5
9
100
AcDbSymbolTable
70
2
0
APPID
5
12
100
AcDbSymbolTableRecord
100
AcDbRegAppTableRecord
2
ACAD
70
0
0
ENDTAB
0
TABLE
2
DIMSTYLE
5
A
100
AcDbSymbolTable
70
1
0
ENDTAB
0
TABLE
2
BLOCK_RECORD
5
1
100
AcDbSymbolTable
70
1
0
BLOCK_RECORD
5
1F
100
AcDbSymbolTableRecord
100
AcDbBlockTableRecord
2
*MODEL_SPACE
0
BLOCK_RECORD
5
1B
100
AcDbSymbolTableRecord
100
AcDbBlockTableRecord
2
*PAPER_SPACE
0
ENDTAB
0
ENDSEC
0
SECTION
2
BLOCKS
0
BLOCK
5
20
100
AcDbEntity
100
AcDbBlockBegin
2
*MODEL_SPACE
0
ENDBLK
5
21
100
AcDbEntity
100
AcDbBlockEnd
0
BLOCK
5
1C
100
AcDbEntity
100
AcDbBlockBegin
2
*PAPER_SPACE
0
ENDBLK
5
1D
100
AcDbEntity
100
AcDbBlockEnd
0
ENDSEC
0
SECTION
2
ENTITIES
0
LINE
5
100
100
AcDbEntity
8
0
100
AcDbLine
10
19.149238614027539
20
5.9441819314148674
30
0
11
13.206310057443513
21
9.3753333333333551
31
0
0
ARC
5
101
100
AcDbEntity
8
0
100
AcDbCircle
10
13.136310057443511
20
9.254089776803534
30
0
40
0.14000000000000076
100
AcDbArc
50
59.999999999999211
51
149.99999999999986
0
LINE
5
102
100
AcDbEntity
8
0
100
AcDbLine
10
13.01506650091369
20
9.3240897768035342
30
0
11
12.555066500913687
21
8.5273464053218557
31
0
0
LINE
5
103
100
AcDbEntity
8
0
100
AcDbLine
10
12.312579387854045
20
8.6673464053218474
30
0
11
12.772579387854044
21
9.4640897768035366
31
0
0
ARC
5
104
100
AcDbEntity
8
0
100
AcDbCircle
10
12.651335831324223
20
9.5340897768035369
30
0
40
0.13999999999999987
100
AcDbArc
50
-30.000000000000171
51
60.000000000000469
0
LINE
5
105
100
AcDbEntity
8
0
100
AcDbLine
10
12.721335831324222
20
9.655333333333358
30
0
11
6.7243985852515777
21
13.117666666666679
31
0
0
ARC
5
106
100
AcDbEntity
8
0
100
AcDbCircle
10
6.6543985852515792
20
12.996423110136856
30
0
40
0.14000000000000054
100
AcDbArc
50
60.000000000000817
51
149.99999999999986
0
LINE
5
107
100
AcDbEntity
8
0
100
AcDbLine
10
6.5331550287217581
20
13.066423110136856
30
0
11
6.0731550287217528
21
12.269679738655178
31
0
0
LINE
5
108
100
AcDbEntity
8
0
100
AcDbLine
10
5.8306679156621106
20
12.40967973865517
30
0
11
6.2906679156621088
21
13.206423110136861
31
0
0
ARC
5
109
100
AcDbEntity
8
0
100
AcDbCircle
10
6.169424359132285
20
13.276423110136861
30
0
40
0.14000000000000218
100
AcDbArc
50
-29.999999999999609
51
60.000000000000206
0
LINE
5
110
100
AcDbEntity
8
0
100
AcDbLine
10
6.2394243591322853
20
13.397666666666684
30
0
11
1.4999999999999964
21
16.133974596215566
31
0
0
ARC
5
111
100
AcDbEntity
8
0
100
AcDbCircle
10
0.99999999999999822
20
15.267949192431127
30
0
40
0.99999999999999967
100
AcDbArc
50
60.000000000000114
51
180
0
LINE
5
112
100
AcDbEntity
8
0
100
AcDbLine
10
-2.1094237467877974e-15
20
15.267949192431129
30
0
11
-7.5213634831265048e-17
21
1
31
0
0
ARC
5
113
100
AcDbEntity
8
0
100
AcDbCircle
10
1
20
1.0000000000000002
30
0
40
1
100
AcDbArc
50
180
51
270
0
LINE
5
114
100
AcDbEntity
8
0
100
AcDbLine
10
0.99999999999999967
20
2.2204460492503131e-16
30
0
11
4.4699999999999998
21
0
31
0
0
ARC
5
115
100
AcDbEntity
8
0
100
AcDbCircle
10
4.4700000000000006
20
0.13999999999999929
30
0
40
0.13999999999999929
100
AcDbArc
50
-90.000000000000369
51
0
0
LINE
5
116
100
AcDbEntity
8
0
100
AcDbLine
10
4.6100000000000003
20
0.13999999999999971
30
0
11
4.6099999999999994
21
1.0600000000000003
31
0
0
LINE
5
117
100
AcDbEntity
8
0
100
AcDbLine
10
4.8899999999999997
20
1.0600000000000003
30
0
11
4.8899999999999997
21
0.13999999999999968
31
0
0
ARC
5
118
100
AcDbEntity
8
0
100
AcDbCircle
10
5.0299999999999994
20
0.13999999999999932
30
0
40
0.13999999999999968
100
AcDbArc
50
180
51
270.00000000000034
0
LINE
5
119
100
AcDbEntity
8
0
100
AcDbLine
10
5.0300000000000002
20
5.2735593669694936e-16
30
0
11
13.969999999999999
21
0
31
0
0
ARC
5
120
100
AcDbEntity
8
0
100
AcDbCircle
10
13.969999999999997
20
0.14000000000000201
30
0
40
0.14000000000000201
100
AcDbArc
50
270.00000000000074
51
360
0
LINE
5
121
100
AcDbEntity
8
0
100
AcDbLine
10
14.109999999999999
20
0.13999999999999974
30
0
11
14.109999999999999
21
1.0600000000000003
31
0
0
LINE
5
122
100
AcDbEntity
8
0
100
AcDbLine
10
14.390000000000001
20
1.0600000000000003
30
0
11
14.390000000000001
21
0.13999999999999968
31
0
0
ARC
5
123
100
AcDbEntity
8
0
100
AcDbCircle
10
14.530000000000003
20
0.14000000000000196
30
0
40
0.14000000000000234
100
AcDbArc
50
180
51
269.99999999999932
0
LINE
5
124
100
AcDbEntity
8
0
100
AcDbLine
10
14.530000000000001
20
-3.8857805861880479e-16
30
0
11
18.422649730810377
21
0
31
0
0
ARC
5
125
100
AcDbEntity
8
0
100
AcDbCircle
10
18.422649730810377
20
0.99999999999999512
30
0
40
0.99999999999999512
100
AcDbArc
50
270
51
330.00000000000023
0
LINE
5
126
100
AcDbEntity
8
0
100
AcDbLine
10
19.288675134594815
20
0.50000000000000022
30
0
11
22.361215932167759
21
5.8217967697245196
31
0
0
ARC
5
127
100
AcDbEntity
8
0
100
AcDbCircle
10
21.495190528383329
20
6.3217967697245214
30
0
40
0.99999999999999367
100
AcDbArc
50
-30.000000000000323
51
60.000000000000369
0
LINE
5
128
100
AcDbEntity
8
0
100
AcDbLine
10
21.995190528383322
20
7.1878221735089607
30
0
11
20.69615242270666
21
7.9378221735089554
31
0
0
ARC
5
129
100
AcDbEntity
8
0
100
AcDbCircle
10
20.588519904553358
20
7.7513971835208579
30
0
40
0.21526503630660312
100
AcDbArc
50
59.999999999999794
51
186.56028596704434
0
ARC
5
130
100
AcDbEntity
8
0
100
AcDbCircle
10
20.460293353566556
20
7.5293022823323952
30
0
40
0.21526503630660537
100
AcDbArc
50
113.43971403295575
51
186.56028596704411
0
ARC
5
131
100
AcDbEntity
8
0
100
AcDbCircle
10
20.332066802579753
20
7.3072073811439333
30
0
40
0.21526503630660537
100
AcDbArc
50
113.43971403295575
51
186.56028596704411
0
ARC
5
132
100
AcDbEntity
8
0
100
AcDbCircle
10
20.20384025159295
20
7.0851124799554714
30
0
40
0.21526503630660537
100
AcDbArc
50
113.43971403295575
51
186.56028596704411
0
ARC
5
133
100
AcDbEntity
8
0
100
AcDbCircle
10
20.075613700606148
20
6.8630175787670087
30
0
40
0.21526503630660618
100
AcDbArc
50
113.43971403295566
51
186.56028596704459
0
ARC
5
134
100
AcDbEntity
8
0
100
AcDbCircle
10
19.947387149619349
20
6.6409226775785459
30
0
40
0.21526503630660596
100
AcDbArc
50
113.4397140329567
51
186.56028596704391
0
ARC
5
135
100
AcDbEntity
8
0
100
AcDbCircle
10
19.819160598632546
20
6.4188277763900841
30
0
40
0.21526503630660618
100
AcDbArc
50
113.43971403295566
51
186.56028596704411
0
ARC
5
136
100
AcDbEntity
8
0
100
AcDbCircle
10
19.690934047645744
20
6.1967328752016222
30
0
40
0.21526503630660537
100
AcDbArc
50
113.43971403295575
51
186.56028596704411
0
ARC
5
137
100
AcDbEntity
8
0
100
AcDbCircle
10
19.562707496658941
20
5.9746379740131594
30
0
40
0.21526503630660618
100
AcDbArc
50
113.43971403295566
51
165.19390008239168
0
ARC
5
138
100
AcDbEntity
8
0
100
AcDbCircle
10
19.219238614027539
20
6.0654254879446885
30
0
40
0.13999999999999987
100
AcDbArc
50
239.99999999999983
51
345.19390008239259
0
LINE
5
139
100
AcDbEntity
8
0
100
AcDbLine
10
-29.999999999999996
20
1.1400000000000008
30
0
11
-30.000000000000004
21
1.8485281374231086
31
0
0
ARC
5
140
100
AcDbEntity
8
0
100
AcDbCircle
10
-30.140000000000004
20
1.8485281374231051
30
0
40
0.14000000000000057
100
AcDbArc
50
0
51
99.368915578456892
0
ARC
5
141
100
AcDbEntity
8
0
100
AcDbCircle
10
-29.999999999999996
20
1.000000000007506
30
0
40
0.99999999999185407
100
AcDbArc
50
99.36891557853258
51
270.00000000047407
0
LINE
5
142
100
AcDbEntity
8
0
100
AcDbLine
10
-29.999999999991722
20
7.5064364446486564e-12
30
0
11
-0.99999999999997513
21
-2.4988560506000814e-14
31
0
0
ARC
5
143
100
AcDbEntity
8
0
100
AcDbCircle
10
-1.0000000000000002
20
1.000000000000822
30
0
40
1.0000000000008471
100
AcDbArc
50
-89.999999999998579
51
80.631084421537295
0
ARC
5
144
100
AcDbEntity
8
0
100
AcDbCircle
10
-0.85999999999999976
20
1.848528137423832
30
0
40
0.14000000002890395
100
AcDbArc
50
80.631084421545566
51
180
0
LINE
5
145
100
AcDbEntity
8
0
100
AcDbLine
10
-0.99999999999999967
20
1.848528137423832
30
0
11
-1
21
1.1400000000000001
31
0
0
LINE
5
146
100
AcDbEntity
8
0
100
AcDbLine
10
-1.279999999999927
20
1.1400000000000001
30
0
11
-1.2799999999999463
21
1.5000000000022045
31
0
0
ARC
5
147
100
AcDbEntity
8
0
100
AcDbCircle
10
-2.2799999999999465
20
1.5000000000021505
30
0
40
1.0000000000000002
100
AcDbArc
50
0
51
90.000000000003524
0
LINE
5
148
100
AcDbEntity
8
0
100
AcDbLine
10
-2.2800000000000082
20
2.5000000000021503
30
0
11
-28.720000000000045
21
2.5000000000007274
31
0
0
ARC
5
149
100
AcDbEntity
8
0
100
AcDbCircle
10
-28.719999999999992
20
1.5000000000007274
30
0
40
1
100
AcDbArc
50
90.000000000003055
51
180
0
LINE
5
150
100
AcDbEntity
8
0
100
AcDbLine
10
-29.719999999999992
20
1.5000000000007532
30
0
11
-29.719999999999999
21
1.1400000000000001
31
0
0
LINE
5
151
100
AcDbEntity
8
0
100
AcDbLine
10
4.6099999999999994
20
1.0600000000000003
30
0
11
4.6100000000000003
21
0.13999999999999968
31
0
0
ARC
5
152
100
AcDbEntity
8
0
100
AcDbCircle
10
4.4699999999999998
20
0.14000000000000001
30
0
40
0.14000000000000001
100
AcDbArc
50
270
51
360
0
LINE
5
153
100
AcDbEntity
8
0
100
AcDbLine
10
4.4699999999999998
20
0
30
0
11
1
21
0
31
0
0
ARC
5
154
100
AcDbEntity
8
0
100
AcDbCircle
10
0.99999999999999989
20
1
30
0
40
1
100
AcDbArc
50
180
51
270
0
LINE
5
155
100
AcDbEntity
8
0
100
AcDbLine
10
-1.1102230246251565e-16
20
1.0000000000000002
30
0
11
-1.1483579551818241e-15
21
15.267949192431129
31
0
0
ARC
5
156
100
AcDbEntity
8
0
100
AcDbCircle
10
0.99999999999999822
20
15.267949192431129
30
0
40
0.999999999999999
100
AcDbArc
50
59.999999999999972
51
180
0
LINE
5
157
100
AcDbEntity
8
0
100
AcDbLine
10
1.4999999999999982
20
16.133974596215566
30
0
11
6.2394243591322844
21
13.39766666666668
31
0
0
ARC
5
158
100
AcDbEntity
8
0
100
AcDbCircle
10
6.1694243591322859
20
13.276423110136861
30
0
40
0.14000000000000065
100
AcDbArc
50
-29.999999999999964
51
60.000000000000114
0
LINE
5
159
100
AcDbEntity
8
0
100
AcDbLine
10
6.2906679156621079
20
13.206423110136861
30
0
11
5.8306679156621106
21
12.40967973865517
31
0
0
LINE
5
160
100
AcDbEntity
8
0
100
AcDbLine
10
6.0731550287217386
20
12.269679738655153
30
0
11
6.5331550287217581
21
13.066423110136856
31
0
0
ARC
5
161
100
AcDbEntity
8
0
100
AcDbCircle
10
6.6543985852515783
20
12.996423110136856
30
0
40
0.1400000000000001
100
AcDbArc
50
60.000000000001151
51
149.99999999999966
0
LINE
5
162
100
AcDbEntity
8
0
100
AcDbLine
10
6.724398585251576
20
13.117666666666679
30
0
11
12.721335831324222
21
9.655333333333358
31
0
0
ARC
5
163
100
AcDbEntity
8
0
100
AcDbCircle
10
12.651335831324223
20
9.5340897768035369
30
0
40
0.13999999999999987
100
AcDbArc
50
-30.000000000000171
51
60.000000000000469
0
LINE
5
164
100
AcDbEntity
8
0
100
AcDbLine
10
12.772579387854044
20
9.4640897768035366
30
0
11
12.312579387854045
21
8.6673464053218474
31
0
0
LINE
5
165
100
AcDbEntity
8
0
100
AcDbLine
10
12.555066500913673
20
8.5273464053218326
30
0
11
13.015066500913694
21
9.3240897768035342
31
0
0
ARC
5
166
100
AcDbEntity
8
0
100
AcDbCircle
10
13.136310057443513
20
9.254089776803534
30
0
40
0.13999999999999987
100
AcDbArc
50
59.999999999999844
51
149.99999999999949
0
LINE
5
167
100
AcDbEntity
8
0
100
AcDbLine
10
13.206310057443513
20
9.3753333333333551
30
0
11
19.149238614027539
21
5.9441819314148674
31
0
0
ARC
5
168
100
AcDbEntity
8
0
100
AcDbCircle
10
19.219238614027539
20
6.0654254879446885
30
0
40
0.13999999999999987
100
AcDbArc
50
239.99999999999983
51
345.19390008239225
0
ARC
5
169
100
AcDbEntity
8
0
100
AcDbCircle
10
19.562707496658948
20
5.9746379740131568
30
0
40
0.21526503630660981
100
AcDbArc
50
113.4397140329573
51
165.19390008239168
0
ARC
5
170
100
AcDbEntity
8
0
100
AcDbCircle
10
19.690934047645747
20
6.1967328752016169
30
0
40
0.21526503630661084
100
AcDbArc
50
113.43971403295615
51
186.56028596704306
0
ARC
5
171
100
AcDbEntity
8
0
100
AcDbCircle
10
19.81916059863255
20
6.4188277763900796
30
0
40
0.21526503630661004
100
AcDbArc
50
113.43971403295623
51
186.56028596704306
0
ARC
5
172
100
AcDbEntity
8
0
100
AcDbCircle
10
19.947387149619349
20
6.6409226775785459
30
0
40
0.21526503630660435
100
AcDbArc
50
113.43971403295689
51
186.56028596704434
0
ARC
5
173
100
AcDbEntity
8
0
100
AcDbCircle
10
20.075613700606159
20
6.8630175787670007
30
0
40
0.21526503630661611
100
AcDbArc
50
113.4397140329576
51
186.56028596704263
0
ARC
5
174
100
AcDbEntity
8
0
100
AcDbCircle
10
20.203840251592961
20
7.0851124799554643
30
0
40
0.21526503630661531
100
AcDbArc
50
113.43971403295768
51
186.56028596704238
0
ARC
5
175
100
AcDbEntity
8
0
100
AcDbCircle
10
20.33206680257976
20
7.3072073811439271
30
0
40
0.21526503630661306
100
AcDbArc
50
113.4397140329569
51
186.56028596704252
0
ARC
5
176
100
AcDbEntity
8
0
100
AcDbCircle
10
20.460293353566566
20
7.529302282332389
30
0
40
0.2152650363066145
100
AcDbArc
50
113.4397140329578
51
186.56028596704238
0
ARC
5
177
100
AcDbEntity
8
0
100
AcDbCircle
10
20.588519904553358
20
7.751397183520857
30
0
40
0.21526503630660465
100
AcDbArc
50
60.000000000000028
51
186.56028596704434
0
LINE
5
178
100
AcDbEntity
8
0
100
AcDbLine
10
20.69615242270666
20
7.9378221735089562
30
0
11
21.995190528383322
21
7.187822173508958
31
0
0
ARC
5
179
100
AcDbEntity
8
0
100
AcDbCircle
10
21.495190528383326
20
6.3217967697245196
30
0
40
0.99999999999999989
100
AcDbArc
50
-30.000000000000121
51
60.000000000000178
0
LINE
5
180
100
AcDbEntity
8
0
100
AcDbLine
10
22.361215932167763
20
5.8217967697245179
30
0
11
19.288675134594815
21
0.5
31
0
0
ARC
5
181
100
AcDbEntity
8
0
100
AcDbCircle
10
18.422649730810377
20
1
30
0
40
0.99999999999999989
100
AcDbArc
50
270
51
329.99999999999994
0
LINE
5
182
100
AcDbEntity
8
0
100
AcDbLine
10
18.422649730810377
20
1.1102230246251565e-16
30
0
11
14.530000000000001
21
0
31
0
0
ARC
5
183
100
AcDbEntity
8
0
100
AcDbCircle
10
14.530000000000001
20
0.13999999999999996
30
0
40
0.14000000000000057
100
AcDbArc
50
180
51
270
0
LINE
5
184
100
AcDbEntity
8
0
100
AcDbLine
10
14.390000000000001
20
0.13999999999999971
30
0
11
14.390000000000001
21
1.0600000000000003
31
0
0
LINE
5
185
100
AcDbEntity
8
0
100
AcDbLine
10
14.109999999999999
20
1.0599999999999998
30
0
11
14.109999999999999
21
0.13999999999999968
31
0
0
ARC
5
186
100
AcDbEntity
8
0
100
AcDbCircle
10
13.969999999999999
20
0.14000000000000001
30
0
40
0.14000000000000001
100
AcDbArc
50
270
51
360
0
LINE
5
187
100
AcDbEntity
8
0
100
AcDbLine
10
13.969999999999999
20
0
30
0
11
5.0300000000000011
21
0
31
0
0
ARC
5
188
100
AcDbEntity
8
0
100
AcDbCircle
10
5.0300000000000002
20
0.14000000000000007
30
0
40
0.13999999999999968
100
AcDbArc
50
180
51
270.00000000000034
0
LINE
5
189
100
AcDbEntity
8
0
100
AcDbLine
10
4.8900000000000006
20
0.13999999999999971
30
0
11
4.8899999999999997
21
1.0600000000000003
31
0
0
ARC
5
190
100
AcDbEntity
8
0
100
AcDbCircle
10
12.433822944383861
20
8.5973464053218365
30
0
40
0.1400000000000006
100
AcDbArc
50
149.99999999999497
51
330.00000000000784
0
ARC
5
191
100
AcDbEntity
8
0
100
AcDbCircle
10
5.9519114721919255
20
12.339679738655155
30
0
40
0.1400000000000016
100
AcDbArc
50
149.99999999999355
51
330.00000000000932
0
ARC
5
192
100
AcDbEntity
8
0
100
AcDbCircle
10
4.75
20
1.0599999999999996
30
0
40
0.13999999999999968
100
AcDbArc
50
0
51
180
0
ARC
5
193
100
AcDbEntity
8
0
100
AcDbCircle
10
14.25
20
1.0600000000000001
30
0
40
0.14000000000000057
100
AcDbArc
50
0
51
180
0
ARC
5
194
100
AcDbEntity
8
0
100
AcDbCircle
10
-1.1399999999999268
20
1.140000000000001
30
0
40
0.14000000000000012
100
AcDbArc
50
180
51
360
0
ARC
5
195
100
AcDbEntity
8
0
100
AcDbCircle
10
-29.859999999999996
20
1.1400000000000001
30
0
40
0.14000000000000057
100
AcDbArc
50
-180
51
0
0
ARC
5
196
100
AcDbEntity
8
0
100
AcDbCircle
10
5.9519114721919211
20
12.33967973865516
30
0
40
0.14000000000000035
100
AcDbArc
50
149.99999999999659
51
329.99999999999659
0
ARC
5
197
100
AcDbEntity
8
0
100
AcDbCircle
10
12.433822944383856
20
8.5973464053218382
30
0
40
0.13999999999999946
100
AcDbArc
50
149.99999999999724
51
329.99999999999721
0
ARC
5
198
100
AcDbEntity
8
0
100
AcDbCircle
10
14.25
20
1.0600000000000001
30
0
40
0.14000000000000057
100
AcDbArc
50
0
51
180
0
ARC
5
199
100
AcDbEntity
8
0
100
AcDbCircle
10
4.7499999999999991
20
1.0600000000000001
30
0
40
0.14000000000000057
100
AcDbArc
50
0
51
180
0
ENDSEC
0
SECTION
2
OBJECTS
0
DICTIONARY
5
C
100
AcDbDictionary
3
ACAD_GROUP
350
D
3
ACAD_MLINESTYLE
350
17
0
DICTIONARY
5
D
100
AcDbDictionary
0
DICTIONARY
5
1A
330
C
100
AcDbDictionary
0
DICTIONARY
5
17
100
AcDbDictionary
0
ENDSEC
0
EOF
